  0
SECTION
  2
HEADER
  9
$ACADVER
  1
AC1014
  9
$ACADMAINTVER
 70
     9
  9
$DWGCODEPAGE
  3
ANSI_1252
  9
$INSBASE
 10
0.0
 20
0.0
 30
0.0
  9
$EXTMIN
 10
-83.24406811172526
 20
54.69829864745341
 30
0.0
  9
$EXTMAX
 10
56.65593188827461
 20
208.1810227958586
 30
0.0
  9
$LIMMIN
 10
0.0
 20
0.0
  9
$LIMMAX
 10
12.0
 20
9.0
  9
$ORTHOMODE
 70
     0
  9
$REGENMODE
 70
     1
  9
$FILLMODE
 70
     1
  9
$QTEXTMODE
 70
     0
  9
$MIRRTEXT
 70
     1
  9
$DRAGMODE
 70
     2
  9
$LTSCALE
 40
1.0
  9
$OSMODE
 70
    37
  9
$ATTMODE
 70
     1
  9
$TEXTSIZE
 40
0.2
  9
$TRACEWID
 40
0.05
  9
$TEXTSTYLE
  7
STANDARD
  9
$CLAYER
  8
0
  9
$CELTYPE
  6
BYLAYER
  9
$CECOLOR
 62
   256
  9
$CELTSCALE
 40
1.0
  9
$DELOBJ
 70
     1
  9
$DISPSILH
 70
     0
  9
$DIMSCALE
 40
1.0
  9
$DIMASZ
 40
0.18
  9
$DIMEXO
 40
0.0625
  9
$DIMDLI
 40
0.38
  9
$DIMRND
 40
0.0
  9
$DIMDLE
 40
0.0
  9
$DIMEXE
 40
0.18
  9
$DIMTP
 40
0.0
  9
$DIMTM
 40
0.0
  9
$DIMTXT
 40
0.18
  9
$DIMCEN
 40
0.09
  9
$DIMTSZ
 40
0.0
  9
$DIMTOL
 70
     0
  9
$DIMLIM
 70
     0
  9
$DIMTIH
 70
     1
  9
$DIMTOH
 70
     1
  9
$DIMSE1
 70
     0
  9
$DIMSE2
 70
     0
  9
$DIMTAD
 70
     0
  9
$DIMZIN
 70
     0
  9
$DIMBLK
  1

  9
$DIMASO
 70
     1
  9
$DIMSHO
 70
     1
  9
$DIMPOST
  1

  9
$DIMAPOST
  1

  9
$DIMALT
 70
     0
  9
$DIMALTD
 70
     2
  9
$DIMALTF
 40
25.4
  9
$DIMLFAC
 40
1.0
  9
$DIMTOFL
 70
     0
  9
$DIMTVP
 40
0.0
  9
$DIMTIX
 70
     0
  9
$DIMSOXD
 70
     0
  9
$DIMSAH
 70
     0
  9
$DIMBLK1
  1

  9
$DIMBLK2
  1

  9
$DIMSTYLE
  2
STANDARD
  9
$DIMCLRD
 70
     0
  9
$DIMCLRE
 70
     0
  9
$DIMCLRT
 70
     0
  9
$DIMTFAC
 40
1.0
  9
$DIMGAP
 40
0.09
  9
$DIMJUST
 70
     0
  9
$DIMSD1
 70
     0
  9
$DIMSD2
 70
     0
  9
$DIMTOLJ
 70
     1
  9
$DIMTZIN
 70
     0
  9
$DIMALTZ
 70
     0
  9
$DIMALTTZ
 70
     0
  9
$DIMFIT
 70
     3
  9
$DIMUPT
 70
     0
  9
$DIMUNIT
 70
     2
  9
$DIMDEC
 70
     4
  9
$DIMTDEC
 70
     4
  9
$DIMALTU
 70
     2
  9
$DIMALTTD
 70
     2
  9
$DIMTXSTY
  7
STANDARD
  9
$DIMAUNIT
 70
     0
  9
$LUNITS
 70
     2
  9
$LUPREC
 70
     4
  9
$SKETCHINC
 40
0.1
  9
$FILLETRAD
 40
0.5
  9
$AUNITS
 70
     0
  9
$AUPREC
 70
     0
  9
$MENU
  1
.
  9
$ELEVATION
 40
0.0
  9
$PELEVATION
 40
0.0
  9
$THICKNESS
 40
0.0
  9
$LIMCHECK
 70
     0
  9
$CHAMFERA
 40
0.5
  9
$CHAMFERB
 40
0.5
  9
$CHAMFERC
 40
1.0
  9
$CHAMFERD
 40
0.0
  9
$SKPOLY
 70
     0
  9
$TDCREATE
 40
2457662.76911316
  9
$TDUPDATE
 40
2457662.769113171
  9
$TDINDWG
 40
0.0000000116
  9
$TDUSRTIMER
 40
0.0000000116
  9
$USRTIMER
 70
     1
  9
$ANGBASE
 50
0.0
  9
$ANGDIR
 70
     0
  9
$PDMODE
 70
     0
  9
$PDSIZE
 40
0.0
  9
$PLINEWID
 40
0.0
  9
$COORDS
 70
     1
  9
$SPLFRAME
 70
     0
  9
$SPLINETYPE
 70
     6
  9
$SPLINESEGS
 70
     8
  9
$ATTDIA
 70
     0
  9
$ATTREQ
 70
     1
  9
$HANDLING
 70
     1
  9
$HANDSEED
  5
557
  9
$SURFTAB1
 70
     6
  9
$SURFTAB2
 70
     6
  9
$SURFTYPE
 70
     6
  9
$SURFU
 70
     6
  9
$SURFV
 70
     6
  9
$UCSNAME
  2

  9
$UCSORG
 10
0.0
 20
0.0
 30
0.0
  9
$UCSXDIR
 10
1.0
 20
0.0
 30
0.0
  9
$UCSYDIR
 10
0.0
 20
1.0
 30
0.0
  9
$PUCSNAME
  2

  9
$PUCSORG
 10
0.0
 20
0.0
 30
0.0
  9
$PUCSXDIR
 10
1.0
 20
0.0
 30
0.0
  9
$PUCSYDIR
 10
0.0
 20
1.0
 30
0.0
  9
$USERI1
 70
     0
  9
$USERI2
 70
     0
  9
$USERI3
 70
     0
  9
$USERI4
 70
     0
  9
$USERI5
 70
     0
  9
$USERR1
 40
16.5
  9
$USERR2
 40
0.0
  9
$USERR3
 40
0.0
  9
$USERR4
 40
0.0
  9
$USERR5
 40
0.0
  9
$WORLDVIEW
 70
     1
  9
$SHADEDGE
 70
     3
  9
$SHADEDIF
 70
    70
  9
$TILEMODE
 70
     1
  9
$MAXACTVP
 70
    64
  9
$PINSBASE
 10
0.0
 20
0.0
 30
0.0
  9
$PLIMCHECK
 70
     0
  9
$PEXTMIN
 10
1.00000000000000E+20
 20
1.00000000000000E+20
 30
1.00000000000000E+20
  9
$PEXTMAX
 10
-1.00000000000000E+20
 20
-1.00000000000000E+20
 30
-1.00000000000000E+20
  9
$PLIMMIN
 10
0.0
 20
0.0
  9
$PLIMMAX
 10
12.0
 20
9.0
  9
$UNITMODE
 70
     0
  9
$VISRETAIN
 70
     1
  9
$PLINEGEN
 70
     0
  9
$PSLTSCALE
 70
     1
  9
$TREEDEPTH
 70
  3020
  9
$PICKSTYLE
 70
     1
  9
$CMLSTYLE
  2
STANDARD
  9
$CMLJUST
 70
     0
  9
$CMLSCALE
 40
1.0
  9
$PROXYGRAPHICS
 70
     1
  9
$MEASUREMENT
 70
     1
  0
ENDSEC
  0
SECTION
  2
CLASSES
  0
CLASS
  1
ACDBDICTIONARYWDFLT
  2
AcDbDictionaryWithDefault
  3
ObjectDBX Classes
 90
        0
280
     0
281
     0
  0
CLASS
  1
VISUALSTYLE
  2
AcDbVisualStyle
  3
ObjectDBX Classes
 90
     4095
280
     0
281
     0
  0
CLASS
  1

  2
exOdDbCircle
  3

 90
        0
280
     0
281
     1
  0
CLASS
  1

  2
exOdDbSpline
  3

 90
        0
280
     0
281
     1
  0
CLASS
  1
XRECORD
  2
AcDbXrecord
  3
AutoCAD 2000
 90
        0
280
     0
281
     0
  0
CLASS
  1
LWPOLYLINE
  2
AcDbPolyline
  3
AutoCAD 2000
 90
        0
280
     0
281
     1
  0
CLASS
  1
HATCH
  2
AcDbHatch
  3
AutoCAD 2000
 90
        0
280
     0
281
     1
  0
CLASS
  1
ACDBPLACEHOLDER
  2
AcDbPlaceHolder
  3
ObjectDBX Classes
 90
        0
280
     0
281
     0
  0
CLASS
  1
LAYOUT
  2
AcDbLayout
  3
ObjectDBX Classes
 90
        0
280
     0
281
     0
  0
ENDSEC
  0
SECTION
  2
TABLES
  0
TABLE
  2
VPORT
  5
8
330
0
100
AcDbSymbolTable
 70
     1
  0
VPORT
  5
29
330
8
100
AcDbSymbolTableRecord
100
AcDbViewportTableRecord
  2
*ACTIVE
 70
     0
 10
0.0
 20
0.0
 11
1.0
 21
1.0
 12
-13.29406811172532
 22
131.439660721656
 13
0.0
 23
0.0
 14
0.5
 24
0.5
 15
0.5
 25
0.5
 16
0.0
 26
0.0
 36
1.0
 17
0.0
 27
0.0
 37
0.0
 40
168.8309965632457
 41
1.60267857142857
 42
50.0
 43
0.0
 44
0.0
 50
0.0
 51
0.0
 71
     0
 72
   100
 73
     1
 74
     3
 75
     0
 76
     0
 77
     0
 78
     0
  0
ENDTAB
  0
TABLE
  2
LTYPE
  5
5
330
0
100
AcDbSymbolTable
 70
     8
  0
LTYPE
  5
14
330
5
100
AcDbSymbolTableRecord
100
AcDbLinetypeTableRecord
  2
BYBLOCK
 70
     0
  3

 72
    65
 73
     0
 40
0.0
  0
LTYPE
  5
15
330
5
100
AcDbSymbolTableRecord
100
AcDbLinetypeTableRecord
  2
BYLAYER
 70
     0
  3

 72
    65
 73
     0
 40
0.0
  0
LTYPE
  5
16
330
5
100
AcDbSymbolTableRecord
100
AcDbLinetypeTableRecord
  2
CONTINUOUS
 70
     0
  3
Solid line
 72
    65
 73
     0
 40
0.0
  0
LTYPE
  5
3B
330
5
100
AcDbSymbolTableRecord
100
AcDbLinetypeTableRecord
  2
DASHED
 70
     0
  3
Dashed
 72
    65
 73
     2
 40
15.0
 49
7.0
 74
     0
 49
-8.0
 74
     0
  0
LTYPE
  5
3C
330
5
100
AcDbSymbolTableRecord
100
AcDbLinetypeTableRecord
  2
DOTTED
 70
     0
  3
Dotted
 72
    65
 73
     2
 40
1.0
 49
0.0
 74
     0
 49
-1.0
 74
     0
  0
LTYPE
  5
3D
330
5
100
AcDbSymbolTableRecord
100
AcDbLinetypeTableRecord
  2
DOT_CENTER
 70
     0
  3
Dot_Center
 72
    65
 73
     4
 40
14.0
 49
12.0
 74
     0
 49
-1.0
 74
     0
 49
0.0
 74
     0
 49
-1.0
 74
     0
  0
LTYPE
  5
3E
330
5
100
AcDbSymbolTableRecord
100
AcDbLinetypeTableRecord
  2
LONG_DASHED
 70
     0
  3
Long_Dashed
 72
    65
 73
     2
 40
15.0
 49
10.0
 74
     0
 49
-5.0
 74
     0
  0
LTYPE
  5
3F
330
5
100
AcDbSymbolTableRecord
100
AcDbLinetypeTableRecord
  2
DASH_CENTER
 70
     0
  3
Dash_Center
 72
    65
 73
     4
 40
14.0
 49
11.0
 74
     0
 49
-1.0
 74
     0
 49
1.0
 74
     0
 49
-1.0
 74
     0
  0
LTYPE
  5
40
330
5
100
AcDbSymbolTableRecord
100
AcDbLinetypeTableRecord
  2
PHANTOM
 70
     0
  3
Phantom
 72
    65
 73
     6
 40
13.0
 49
10.0
 74
     0
 49
-1.0
 74
     0
 49
0.0
 74
     0
 49
-1.0
 74
     0
 49
0.0
 74
     0
 49
-1.0
 74
     0
  0
LTYPE
  5
41
330
5
100
AcDbSymbolTableRecord
100
AcDbLinetypeTableRecord
  2
CENTER_DASH_DASH
 70
     0
  3
Center_Dash_Dash
 72
    65
 73
     6
 40
14.0
 49
9.0
 74
     0
 49
-1.0
 74
     0
 49
1.0
 74
     0
 49
-1.0
 74
     0
 49
1.0
 74
     0
 49
-1.0
 74
     0
  0
ENDTAB
  0
TABLE
  2
LAYER
  5
2
330
0
100
AcDbSymbolTable
 70
     2
  0
LAYER
  5
10
330
2
100
AcDbSymbolTableRecord
100
AcDbLayerTableRecord
  2
0
 70
     0
 62
     7
  6
CONTINUOUS
  0
LAYER
  5
42
330
2
100
AcDbSymbolTableRecord
100
AcDbLayerTableRecord
  2
1
 70
     0
 62
     7
  6
CONTINUOUS
  0
ENDTAB
  0
TABLE
  2
STYLE
  5
3
330
0
100
AcDbSymbolTable
 70
     1
  0
STYLE
  5
11
330
3
100
AcDbSymbolTableRecord
100
AcDbTextStyleTableRecord
  2
STANDARD
 70
     0
 40
0.0
 41
1.0
 50
0.0
 71
     0
 42
0.2
  3
txt
  4

  0
ENDTAB
  0
TABLE
  2
VIEW
  5
6
330
0
100
AcDbSymbolTable
 70
     0
  0
ENDTAB
  0
TABLE
  2
UCS
  5
7
330
0
100
AcDbSymbolTable
 70
     0
  0
ENDTAB
  0
TABLE
  2
APPID
  5
9
330
0
100
AcDbSymbolTable
 70
     1
  0
APPID
  5
12
330
9
100
AcDbSymbolTableRecord
100
AcDbRegAppTableRecord
  2
ACAD
 70
     0
  0
ENDTAB
  0
TABLE
  2
DIMSTYLE
  5
A
330
0
100
AcDbSymbolTable
 70
     1
  0
DIMSTYLE
105
27
330
A
100
AcDbSymbolTableRecord
100
AcDbDimStyleTableRecord
  2
STANDARD
 70
     0
  3

  4

  5

  6

  7

 40
1.0
 41
0.18
 42
0.0625
 43
0.38
 44
0.18
 45
0.0
 46
0.0
 47
0.0
 48
0.0
140
0.18
141
0.09
142
0.0
143
25.4
144
1.0
145
0.0
146
1.0
147
0.09
 71
     0
 72
     0
 73
     1
 74
     1
 75
     0
 76
     0
 77
     0
 78
     0
170
     0
171
     2
172
     0
173
     0
174
     0
175
     0
176
     0
177
     0
178
     0
270
     2
271
     4
272
     4
273
     2
274
     2
340
11
275
     0
280
     0
281
     0
282
     0
283
     1
284
     0
285
     0
286
     0
287
     3
288
     0
  0
ENDTAB
  0
TABLE
  2
BLOCK_RECORD
  5
1
330
0
100
AcDbSymbolTable
 70
     1
  0
BLOCK_RECORD
  5
1F
330
1
100
AcDbSymbolTableRecord
100
AcDbBlockTableRecord
  2
*MODEL_SPACE
  0
BLOCK_RECORD
  5
1B
330
1
100
AcDbSymbolTableRecord
100
AcDbBlockTableRecord
  2
*PAPER_SPACE
  0
ENDTAB
  0
ENDSEC
  0
SECTION
  2
BLOCKS
  0
BLOCK
  5
20
330
1F
100
AcDbEntity
  8
0
100
AcDbBlockBegin
  2
*MODEL_SPACE
 70
     0
 10
0.0
 20
0.0
 30
0.0
  3
*MODEL_SPACE
  1

  0
ENDBLK
  5
21
330
1F
100
AcDbEntity
  8
0
100
AcDbBlockEnd
  0
BLOCK
  5
1C
330
1B
100
AcDbEntity
 67
     1
  8
0
100
AcDbBlockBegin
  2
*PAPER_SPACE
 70
     0
 10
0.0
 20
0.0
 30
0.0
  3
*PAPER_SPACE
  1

  0
ENDBLK
  5
1D
330
1B
100
AcDbEntity
 67
     1
  8
0
100
AcDbBlockEnd
  0
ENDSEC
  0
SECTION
  2
ENTITIES
  0
LINE
  5
43
330
1F
100
AcDbEntity
  8
0
  6
CONTINUOUS
 62
     7
100
AcDbLine
 10
-70.34406811172539
 20
146.9091963317826
 30
0.0
 11
-69.54406811172521
 21
146.9091963317826
 31
0.0
  0
LINE
  5
44
330
1F
100
AcDbEntity
  8
0
  6
CONTINUOUS
 62
     7
100
AcDbLine
 10
-70.34406811172539
 20
146.9091963317826
 30
0.0
 11
-74.24406811172526
 21
146.9091963317826
 31
0.0
  0
LINE
  5
45
330
1F
100
AcDbEntity
  8
0
  6
CONTINUOUS
 62
     7
100
AcDbLine
 10
-74.24406811172526
 20
146.8991963317826
 30
0.0
 11
-74.24406811172526
 21
146.9091963317826
 31
0.0
  0
LINE
  5
46
330
1F
100
AcDbEntity
  8
0
  6
CONTINUOUS
 62
     7
100
AcDbLine
 10
-74.24406811172526
 20
146.4441963317826
 30
0.0
 11
-74.24406811172526
 21
146.8991963317826
 31
0.0
  0
LINE
  5
47
330
1F
100
AcDbEntity
  8
0
  6
CONTINUOUS
 62
     7
100
AcDbLine
 10
-74.24406811172526
 20
146.8991963317826
 30
0.0
 11
-74.84406811172539
 21
146.8991963317826
 31
0.0
  0
LINE
  5
48
330
1F
100
AcDbEntity
  8
0
  6
CONTINUOUS
 62
     7
100
AcDbLine
 10
-74.84406811172539
 20
146.9091963317826
 30
0.0
 11
-78.74406811172526
 21
146.9091963317826
 31
0.0
  0
LINE
  5
49
330
1F
100
AcDbEntity
  8
0
  6
CONTINUOUS
 62
     7
100
AcDbLine
 10
-74.84406811172539
 20
146.8991963317826
 30
0.0
 11
-74.84406811172539
 21
146.9091963317826
 31
0.0
  0
LINE
  5
4A
330
1F
100
AcDbEntity
  8
0
  6
CONTINUOUS
 62
     7
100
AcDbLine
 10
-74.84406811172539
 20
146.4441963317826
 30
0.0
 11
-74.84406811172539
 21
146.8991963317826
 31
0.0
  0
LINE
  5
4B
330
1F
100
AcDbEntity
  8
0
  6
CONTINUOUS
 62
     7
100
AcDbLine
 10
-78.74406811172526
 20
146.9091963317826
 30
0.0
 11
-79.54406811172521
 21
146.9091963317826
 31
0.0
  0
LINE
  5
4C
330
1F
100
AcDbEntity
  8
0
  6
CONTINUOUS
 62
     7
100
AcDbLine
 10
-75.6940681117253
 20
147.6439661516558
 30
0.0
 11
-73.39406811172535
 21
147.6439661516558
 31
0.0
  0
LINE
  5
4D
330
1F
100
AcDbEntity
  8
0
  6
CONTINUOUS
 62
     7
100
AcDbLine
 10
-69.89406811172535
 20
147.6439661516558
 30
0.0
 11
-69.89406811172535
 21
146.9091963317826
 31
0.0
  0
LINE
  5
4E
330
1F
100
AcDbEntity
  8
0
  6
CONTINUOUS
 62
     7
100
AcDbLine
 10
-71.89406811172535
 20
147.6439661516558
 30
0.0
 11
-71.89406811172535
 21
146.9091963317826
 31
0.0
  0
LINE
  5
4F
330
1F
100
AcDbEntity
  8
0
  6
CONTINUOUS
 62
     7
100
AcDbLine
 10
-71.89406811172535
 20
147.6439661516558
 30
0.0
 11
-69.89406811172535
 21
147.6439661516558
 31
0.0
  0
LINE
  5
50
330
1F
100
AcDbEntity
  8
0
  6
CONTINUOUS
 62
     7
100
AcDbLine
 10
-73.39406811172535
 20
147.6439661516558
 30
0.0
 11
-73.39406811172535
 21
146.9091963317826
 31
0.0
  0
LINE
  5
51
330
1F
100
AcDbEntity
  8
0
  6
CONTINUOUS
 62
     7
100
AcDbLine
 10
-75.6940681117253
 20
147.6439661516558
 30
0.0
 11
-75.6940681117253
 21
146.9091963317826
 31
0.0
  0
LINE
  5
52
330
1F
100
AcDbEntity
  8
0
  6
CONTINUOUS
 62
     7
100
AcDbLine
 10
-77.1940681117253
 20
147.6439661516558
 30
0.0
 11
-77.1940681117253
 21
146.9091963317826
 31
0.0
  0
LINE
  5
53
330
1F
100
AcDbEntity
  8
0
  6
CONTINUOUS
 62
     7
100
AcDbLine
 10
-79.1940681117253
 20
147.6439661516558
 30
0.0
 11
-79.1940681117253
 21
146.9091963317826
 31
0.0
  0
LINE
  5
54
330
1F
100
AcDbEntity
  8
0
  6
CONTINUOUS
 62
     7
100
AcDbLine
 10
-79.1940681117253
 20
147.6439661516558
 30
0.0
 11
-77.1940681117253
 21
147.6439661516558
 31
0.0
  0
LINE
  5
55
330
1F
100
AcDbEntity
  8
0
  6
CONTINUOUS
 62
     7
100
AcDbLine
 10
-80.1940681117203
 20
147.538603680473
 30
0.0
 11
-80.1940681117253
 21
147.5361181511888
 31
0.0
  0
LINE
  5
56
330
1F
100
AcDbEntity
  8
0
  6
CONTINUOUS
 62
     7
100
AcDbLine
 10
-68.89406811172535
 20
147.5280033941718
 30
0.0
 11
-68.89406811172535
 21
146.4441963317827
 31
0.0
  0
LINE
  5
57
330
1F
100
AcDbEntity
  8
0
  6
CONTINUOUS
 62
     7
100
AcDbLine
 10
-68.89406811173035
 20
147.532985772197
 30
0.0
 11
-68.89406811172535
 21
147.5280033941718
 31
0.0
  0
LINE
  5
58
330
1F
100
AcDbEntity
  8
0
  6
CONTINUOUS
 62
     7
100
AcDbLine
 10
-67.39406811172535
 20
146.65867440885
 30
0.0
 11
-67.39406811172535
 21
146.4441963317826
 31
0.0
  0
LINE
  5
59
330
1F
100
AcDbEntity
  8
0
  6
CONTINUOUS
 62
     7
100
AcDbLine
 10
-80.1940681117253
 20
147.5361181511888
 30
0.0
 11
-80.1940681117253
 21
146.4441963317826
 31
0.0
  0
LINE
  5
5A
330
1F
100
AcDbEntity
  8
0
  6
CONTINUOUS
 62
     7
100
AcDbLine
 10
-81.6940681117253
 20
146.4441963317827
 30
0.0
 11
-81.6940681117253
 21
146.6986271884583
 31
0.0
  0
LINE
  5
5B
330
1F
100
AcDbEntity
  8
0
  6
CONTINUOUS
 62
     7
100
AcDbLine
 10
-80.1940681117253
 20
146.4441963317826
 30
0.0
 11
-68.89406811172535
 21
146.4441963317827
 31
0.0
  0
LINE
  5
5C
330
1F
100
AcDbEntity
  8
0
  6
CONTINUOUS
 62
     7
100
AcDbLine
 10
-5.5440686029292
 20
146.9091963317826
 30
0.0
 11
-7.0440686029292
 21
146.9091963317826
 31
0.0
  0
LINE
  5
5D
330
1F
100
AcDbEntity
  8
0
  6
CONTINUOUS
 62
     7
100
AcDbLine
 10
-4.74406860292925
 20
146.9091963317826
 30
0.0
 11
-5.5440686029292
 21
146.9091963317826
 31
0.0
  0
LINE
  5
5E
330
1F
100
AcDbEntity
  8
0
  6
CONTINUOUS
 62
     7
100
AcDbLine
 10
-7.84406860292938
 20
146.9091963317826
 30
0.0
 11
-7.0440686029292
 21
146.9091963317826
 31
0.0
  0
LINE
  5
5F
330
1F
100
AcDbEntity
  8
0
  6
CONTINUOUS
 62
     7
100
AcDbLine
 10
-21.89406860292934
 20
146.9091963317826
 30
0.0
 11
-22.69406860292929
 21
146.9091963317826
 31
0.0
  0
LINE
  5
60
330
1F
100
AcDbEntity
  8
0
  6
CONTINUOUS
 62
     7
100
AcDbLine
 10
-24.19406860292929
 20
146.9091963317826
 30
0.0
 11
-24.99406860292925
 21
146.9091963317826
 31
0.0
  0
LINE
  5
61
330
1F
100
AcDbEntity
  8
0
  6
CONTINUOUS
 62
     7
100
AcDbLine
 10
-22.69406860292929
 20
146.9091963317826
 30
0.0
 11
-24.19406860292929
 21
146.9091963317826
 31
0.0
  0
LINE
  5
62
330
1F
100
AcDbEntity
  8
0
  6
CONTINUOUS
 62
     7
100
AcDbLine
 10
56.45593188827479
 20
139.5441963317827
 30
0.0
 11
56.45593188827479
 21
141.0441963317828
 31
0.0
  0
LINE
  5
63
330
1F
100
AcDbEntity
  8
0
  6
CONTINUOUS
 62
     7
100
AcDbLine
 10
56.45593188827479
 20
142.7441963317813
 30
0.0
 11
56.45593188827479
 21
142.849247357503
 31
0.0
  0
LINE
  5
64
330
1F
100
AcDbEntity
  8
0
  6
CONTINUOUS
 62
     7
100
AcDbLine
 10
56.45593188827479
 20
141.0441963317828
 30
0.0
 11
56.45593188827479
 21
142.7441963317813
 31
0.0
  0
LINE
  5
65
330
1F
100
AcDbEntity
  8
0
  6
CONTINUOUS
 62
     7
100
AcDbLine
 10
42.3059318882747
 20
146.2841963317827
 30
0.0
 11
43.15593188827461
 21
146.2841963317827
 31
0.0
  0
LINE
  5
66
330
1F
100
AcDbEntity
  8
0
  6
CONTINUOUS
 62
     7
100
AcDbLine
 10
43.3059318882747
 20
146.3991963317827
 30
0.0
 11
42.45593188827479
 21
146.3991963317827
 31
0.0
  0
LINE
  5
67
330
1F
100
AcDbEntity
  8
0
  6
CONTINUOUS
 62
     7
100
AcDbLine
 10
45.3059318882747
 20
146.3991963317827
 30
0.0
 11
46.8059318882747
 21
146.3991963317827
 31
0.0
  0
LINE
  5
68
330
1F
100
AcDbEntity
  8
0
  6
CONTINUOUS
 62
     7
100
AcDbLine
 10
43.3059318882747
 20
146.2941963317827
 30
0.0
 11
43.15593188827461
 21
146.2941963317827
 31
0.0
  0
LINE
  5
69
330
1F
100
AcDbEntity
  8
0
  6
CONTINUOUS
 62
     7
100
AcDbLine
 10
49.10593188827465
 20
146.3991963317827
 30
0.0
 11
50.60593188827465
 21
146.3991963317827
 31
0.0
  0
LINE
  5
6A
330
1F
100
AcDbEntity
  8
0
  6
CONTINUOUS
 62
     7
100
AcDbLine
 10
52.60593188827465
 20
146.3991963317827
 30
0.0
 11
53.45593188827479
 21
146.3991963317827
 31
0.0
  0
LINE
  5
6B
330
1F
100
AcDbEntity
  8
0
  6
CONTINUOUS
 62
     7
100
AcDbLine
 10
53.60593188827465
 20
146.2941963317827
 30
0.0
 11
52.75593188827475
 21
146.2941963317827
 31
0.0
  0
LINE
  5
6C
330
1F
100
AcDbEntity
  8
0
  6
CONTINUOUS
 62
     7
100
AcDbLine
 10
50.60593188827465
 20
146.2841963317827
 30
0.0
 11
49.10593188827465
 21
146.2841963317827
 31
0.0
  0
LINE
  5
6D
330
1F
100
AcDbEntity
  8
0
  6
CONTINUOUS
 62
     7
100
AcDbLine
 10
50.60593188827465
 20
146.2941963317827
 30
0.0
 11
49.10593188827465
 21
146.2941963317827
 31
0.0
  0
LINE
  5
6E
330
1F
100
AcDbEntity
  8
0
  6
CONTINUOUS
 62
     7
100
AcDbLine
 10
49.10593188827465
 20
146.9091963317827
 30
0.0
 11
50.60593188827465
 21
146.9091963317827
 31
0.0
  0
LINE
  5
6F
330
1F
100
AcDbEntity
  8
0
  6
CONTINUOUS
 62
     7
100
AcDbLine
 10
45.3059318882747
 20
146.9091963317827
 30
0.0
 11
46.8059318882747
 21
146.9091963317827
 31
0.0
  0
LINE
  5
70
330
1F
100
AcDbEntity
  8
0
  6
CONTINUOUS
 62
     7
100
AcDbLine
 10
46.8059318882747
 20
146.2841963317827
 30
0.0
 11
45.3059318882747
 21
146.2841963317827
 31
0.0
  0
LINE
  5
71
330
1F
100
AcDbEntity
  8
0
  6
CONTINUOUS
 62
     7
100
AcDbLine
 10
46.8059318882747
 20
146.2941963317827
 30
0.0
 11
45.3059318882747
 21
146.2941963317827
 31
0.0
  0
LINE
  5
72
330
1F
100
AcDbEntity
  8
0
  6
CONTINUOUS
 62
     7
100
AcDbLine
 10
43.3059318882747
 20
146.2841963317827
 30
0.0
 11
43.15593188827461
 21
146.2841963317827
 31
0.0
  0
LINE
  5
73
330
1F
100
AcDbEntity
  8
0
  6
CONTINUOUS
 62
     7
100
AcDbLine
 10
43.3059318882747
 20
146.9091963317827
 30
0.0
 11
42.95593188827479
 21
146.9091963317827
 31
0.0
  0
LINE
  5
74
330
1F
100
AcDbEntity
  8
0
  6
CONTINUOUS
 62
     7
100
AcDbLine
 10
43.3059318882747
 20
146.3891963317827
 30
0.0
 11
42.3059318882747
 21
146.3891963317827
 31
0.0
  0
LINE
  5
75
330
1F
100
AcDbEntity
  8
0
  6
CONTINUOUS
 62
     7
100
AcDbLine
 10
43.15593188827461
 20
146.2941963317827
 30
0.0
 11
42.3059318882747
 21
146.2941963317827
 31
0.0
  0
LINE
  5
76
330
1F
100
AcDbEntity
  8
0
  6
CONTINUOUS
 62
     7
100
AcDbLine
 10
42.45593188827479
 20
146.3991963317827
 30
0.0
 11
42.3059318882747
 21
146.3991963317827
 31
0.0
  0
LINE
  5
77
330
1F
100
AcDbEntity
  8
0
  6
CONTINUOUS
 62
     7
100
AcDbLine
 10
46.8059318882747
 20
146.3891963317827
 30
0.0
 11
45.3059318882747
 21
146.3891963317827
 31
0.0
  0
LINE
  5
78
330
1F
100
AcDbEntity
  8
0
  6
CONTINUOUS
 62
     7
100
AcDbLine
 10
50.60593188827465
 20
146.3891963317827
 30
0.0
 11
49.10593188827465
 21
146.3891963317827
 31
0.0
  0
LINE
  5
79
330
1F
100
AcDbEntity
  8
0
  6
CONTINUOUS
 62
     7
100
AcDbLine
 10
53.45593188827479
 20
146.4091963317827
 30
0.0
 11
53.45593188827479
 21
146.3991963317827
 31
0.0
  0
LINE
  5
7A
330
1F
100
AcDbEntity
  8
0
  6
CONTINUOUS
 62
     7
100
AcDbLine
 10
42.45593188827479
 20
146.4091963317827
 30
0.0
 11
42.45593188827479
 21
146.3991963317827
 31
0.0
  0
LINE
  5
7B
330
1F
100
AcDbEntity
  8
0
  6
CONTINUOUS
 62
     7
100
AcDbLine
 10
52.75593188827475
 20
146.2841963317827
 30
0.0
 11
52.60593188827465
 21
146.2841963317827
 31
0.0
  0
LINE
  5
7C
330
1F
100
AcDbEntity
  8
0
  6
CONTINUOUS
 62
     7
100
AcDbLine
 10
52.75593188827475
 20
146.2941963317827
 30
0.0
 11
52.60593188827465
 21
146.2941963317827
 31
0.0
  0
LINE
  5
7D
330
1F
100
AcDbEntity
  8
0
  6
CONTINUOUS
 62
     7
100
AcDbLine
 10
53.45593188827479
 20
146.3991963317827
 30
0.0
 11
53.60593188827465
 21
146.3991963317827
 31
0.0
  0
LINE
  5
7E
330
1F
100
AcDbEntity
  8
0
  6
CONTINUOUS
 62
     7
100
AcDbLine
 10
52.60593188827465
 20
146.9091963317827
 30
0.0
 11
52.95593188827479
 21
146.9091963317827
 31
0.0
  0
LINE
  5
7F
330
1F
100
AcDbEntity
  8
0
  6
CONTINUOUS
 62
     7
100
AcDbLine
 10
52.75593188827475
 20
146.2841963317827
 30
0.0
 11
53.60593188827465
 21
146.2841963317827
 31
0.0
  0
LINE
  5
80
330
1F
100
AcDbEntity
  8
0
  6
CONTINUOUS
 62
     7
100
AcDbLine
 10
53.60593188827465
 20
146.3891963317827
 30
0.0
 11
52.60593188827465
 21
146.3891963317827
 31
0.0
  0
LINE
  5
81
330
1F
100
AcDbEntity
  8
0
  6
CONTINUOUS
 62
     7
100
AcDbLine
 10
39.45593188827479
 20
142.849247357503
 30
0.0
 11
39.45593188827479
 21
142.7441963317813
 31
0.0
  0
LINE
  5
82
330
1F
100
AcDbEntity
  8
0
  6
CONTINUOUS
 62
     7
100
AcDbLine
 10
39.45593188827479
 20
141.0441963317828
 30
0.0
 11
39.45593188827479
 21
139.5441963317827
 31
0.0
  0
LINE
  5
83
330
1F
100
AcDbEntity
  8
0
  6
CONTINUOUS
 62
     7
100
AcDbLine
 10
39.45593188827479
 20
142.7441963317813
 30
0.0
 11
39.45593188827479
 21
141.0441963317828
 31
0.0
  0
LINE
  5
84
330
1F
100
AcDbEntity
  8
0
  6
CONTINUOUS
 62
     7
100
AcDbLine
 10
39.25593188827475
 20
146.4441963317827
 30
0.0
 11
39.25593188827475
 21
142.7441963317813
 31
0.0
  0
LINE
  5
85
330
1F
100
AcDbEntity
  8
0
  6
CONTINUOUS
 62
     7
100
AcDbLine
 10
39.25593188827475
 20
141.0441963317827
 30
0.0
 11
39.25593188827475
 21
142.7441963317813
 31
0.0
  0
LINE
  5
86
330
1F
100
AcDbEntity
  8
0
  6
CONTINUOUS
 62
     7
100
AcDbLine
 10
39.45593188827479
 20
141.0441963317828
 30
0.0
 11
39.25593188827475
 21
141.0441963317827
 31
0.0
  0
LINE
  5
87
330
1F
100
AcDbEntity
  8
0
  6
CONTINUOUS
 62
     7
100
AcDbLine
 10
39.25593188827475
 20
142.7441963317813
 30
0.0
 11
39.45593188827479
 21
142.7441963317813
 31
0.0
  0
LINE
  5
88
330
1F
100
AcDbEntity
  8
0
  6
CONTINUOUS
 62
     7
100
AcDbLine
 10
39.45593188827479
 20
142.849247357503
 30
0.0
 11
39.45593188827479
 21
142.7441963317813
 31
0.0
  0
LINE
  5
89
330
1F
100
AcDbEntity
  8
0
  6
CONTINUOUS
 62
     7
100
AcDbLine
 10
39.45593188827479
 20
141.0441963317828
 30
0.0
 11
39.45593188827479
 21
139.5441963317827
 31
0.0
  0
LINE
  5
8A
330
1F
100
AcDbEntity
  8
0
  6
CONTINUOUS
 62
     7
100
AcDbLine
 10
39.45593188827479
 20
142.7441963317813
 30
0.0
 11
39.45593188827479
 21
141.0441963317828
 31
0.0
  0
LINE
  5
8B
330
1F
100
AcDbEntity
  8
0
  6
CONTINUOUS
 62
     7
100
AcDbLine
 10
40.8059318882747
 20
146.4441963317827
 30
0.0
 11
39.25593188827475
 21
146.4441963317827
 31
0.0
  0
LINE
  5
8C
330
1F
100
AcDbEntity
  8
0
  6
CONTINUOUS
 62
     7
100
AcDbLine
 10
40.8059318882747
 20
139.47116651328
 30
0.0
 11
40.8059318882747
 21
140.9404188729603
 31
0.0
  0
LINE
  5
8D
330
1F
100
AcDbEntity
  8
0
  6
CONTINUOUS
 62
     7
100
AcDbLine
 10
40.8059318882747
 20
140.9404188729603
 30
0.0
 11
40.8059318882747
 21
141.2575676859444
 31
0.0
  0
LINE
  5
8E
330
1F
100
AcDbEntity
  8
0
  6
CONTINUOUS
 62
     7
100
AcDbLine
 10
40.8059318882747
 20
146.6586744088501
 30
0.0
 11
40.8059318882747
 21
145.4298310395423
 31
0.0
  0
LINE
  5
8F
330
1F
100
AcDbEntity
  8
0
  6
CONTINUOUS
 62
     7
100
AcDbLine
 10
40.8059318882747
 20
145.0720601631423
 30
0.0
 11
40.8059318882747
 21
141.2575676859444
 31
0.0
  0
LINE
  5
90
330
1F
100
AcDbEntity
  8
0
  6
CONTINUOUS
 62
     7
100
AcDbLine
 10
42.3059318882747
 20
146.4441963317827
 30
0.0
 11
42.45715839258764
 21
146.4441963317827
 31
0.0
  0
LINE
  5
91
330
1F
100
AcDbEntity
  8
0
  6
CONTINUOUS
 62
     7
100
AcDbLine
 10
42.3059318882747
 20
145.9941963317828
 30
0.0
 11
42.3059318882747
 21
146.4441963317827
 31
0.0
  0
LINE
  5
92
330
1F
100
AcDbEntity
  8
0
  6
CONTINUOUS
 62
     7
100
AcDbLine
 10
49.10593188827465
 20
145.9941963317828
 30
0.0
 11
49.10593188827465
 21
147.6439661516558
 31
0.0
  0
LINE
  5
93
330
1F
100
AcDbEntity
  8
0
  6
CONTINUOUS
 62
     7
100
AcDbLine
 10
46.8059318882747
 20
145.9941963317828
 30
0.0
 11
46.8059318882747
 21
147.6439661516558
 31
0.0
  0
LINE
  5
94
330
1F
100
AcDbEntity
  8
0
  6
CONTINUOUS
 62
     7
100
AcDbLine
 10
52.60593188827465
 20
147.643966151656
 30
0.0
 11
50.60593188827465
 21
147.6439661516558
 31
0.0
  0
LINE
  5
95
330
1F
100
AcDbEntity
  8
0
  6
CONTINUOUS
 62
     7
100
AcDbLine
 10
45.3059318882747
 20
145.9941963317828
 30
0.0
 11
45.3059318882747
 21
147.6439661516558
 31
0.0
  0
LINE
  5
96
330
1F
100
AcDbEntity
  8
0
  6
CONTINUOUS
 62
     7
100
AcDbLine
 10
43.3059318882747
 20
145.9941963317828
 30
0.0
 11
43.3059318882747
 21
147.643966151656
 31
0.0
  0
LINE
  5
97
330
1F
100
AcDbEntity
  8
0
  6
CONTINUOUS
 62
     7
100
AcDbLine
 10
45.3059318882747
 20
147.6439661516558
 30
0.0
 11
43.3059318882747
 21
147.643966151656
 31
0.0
  0
LINE
  5
98
330
1F
100
AcDbEntity
  8
0
  6
CONTINUOUS
 62
     7
100
AcDbLine
 10
52.60593188827465
 20
145.9941963317828
 30
0.0
 11
52.60593188827465
 21
147.643966151656
 31
0.0
  0
LINE
  5
99
330
1F
100
AcDbEntity
  8
0
  6
CONTINUOUS
 62
     7
100
AcDbLine
 10
50.60593188827465
 20
145.9941963317828
 30
0.0
 11
50.60593188827465
 21
147.6439661516558
 31
0.0
  0
LINE
  5
9A
330
1F
100
AcDbEntity
  8
0
  6
CONTINUOUS
 62
     7
100
AcDbLine
 10
55.10593188827465
 20
146.4441963317827
 30
0.0
 11
56.65593188827461
 21
146.4441963317827
 31
0.0
  0
LINE
  5
9B
330
1F
100
AcDbEntity
  8
0
  6
CONTINUOUS
 62
     7
100
AcDbLine
 10
56.65593188827461
 20
146.4441963317827
 30
0.0
 11
56.65593188827461
 21
142.7441963317813
 31
0.0
  0
LINE
  5
9C
330
1F
100
AcDbEntity
  8
0
  6
CONTINUOUS
 62
     7
100
AcDbLine
 10
55.10593188827465
 20
145.436580553905
 30
0.0
 11
55.10593188827465
 21
146.6986271884584
 31
0.0
  0
LINE
  5
9D
330
1F
100
AcDbEntity
  8
0
  6
CONTINUOUS
 62
     7
100
AcDbLine
 10
53.60593188827465
 20
146.4441963317827
 30
0.0
 11
53.60593188827079
 21
147.5386036804731
 31
0.0
  0
LINE
  5
9E
330
1F
100
AcDbEntity
  8
0
  6
CONTINUOUS
 62
     7
100
AcDbLine
 10
42.3059318882747
 20
147.311871208978
 30
0.0
 11
42.30593188828061
 21
147.5329857721971
 31
0.0
  0
LINE
  5
9F
330
1F
100
AcDbEntity
  8
0
  6
CONTINUOUS
 62
     7
100
AcDbLine
 10
42.3059318882747
 20
146.4441963317827
 30
0.0
 11
42.3059318882747
 21
147.311871208978
 31
0.0
  0
LINE
  5
A0
330
1F
100
AcDbEntity
  8
0
  6
CONTINUOUS
 62
     7
100
AcDbLine
 10
49.10593188827465
 20
147.6439661516558
 30
0.0
 11
46.8059318882747
 21
147.6439661516558
 31
0.0
  0
LINE
  5
A1
330
1F
100
AcDbEntity
  8
0
  6
CONTINUOUS
 62
     7
100
AcDbLine
 10
40.8059318882747
 20
145.4298310395423
 30
0.0
 11
40.8059318882747
 21
145.0720601631423
 31
0.0
  0
LINE
  5
A2
330
1F
100
AcDbEntity
  8
0
  6
CONTINUOUS
 62
     7
100
AcDbLine
 10
56.45593188827479
 20
142.7441963317813
 30
0.0
 11
56.65593188827461
 21
142.7441963317813
 31
0.0
  0
LINE
  5
A3
330
1F
100
AcDbEntity
  8
0
  6
CONTINUOUS
 62
     7
100
AcDbLine
 10
56.65593188827461
 20
141.0441963317827
 30
0.0
 11
56.65593188827461
 21
142.7441963317813
 31
0.0
  0
LINE
  5
A4
330
1F
100
AcDbEntity
  8
0
  6
CONTINUOUS
 62
     7
100
AcDbLine
 10
56.45593188827479
 20
139.5441963317827
 30
0.0
 11
56.45593188827479
 21
141.0441963317828
 31
0.0
  0
LINE
  5
A5
330
1F
100
AcDbEntity
  8
0
  6
CONTINUOUS
 62
     7
100
AcDbLine
 10
56.65593188827461
 20
141.0441963317827
 30
0.0
 11
56.45593188827479
 21
141.0441963317828
 31
0.0
  0
LINE
  5
A6
330
1F
100
AcDbEntity
  8
0
  6
CONTINUOUS
 62
     7
100
AcDbLine
 10
55.10593188827465
 20
140.9404188729603
 30
0.0
 11
55.10593188827465
 21
141.2575676859444
 31
0.0
  0
LINE
  5
A7
330
1F
100
AcDbEntity
  8
0
  6
CONTINUOUS
 62
     7
100
AcDbLine
 10
55.10593188827465
 20
140.9404188729603
 30
0.0
 11
55.10593188827465
 21
139.47116651328
 31
0.0
  0
LINE
  5
A8
330
1F
100
AcDbEntity
  8
0
  6
CONTINUOUS
 62
     7
100
AcDbLine
 10
55.10593188827465
 20
145.0933351022503
 30
0.0
 11
55.10593188827465
 21
141.2575676859444
 31
0.0
  0
LINE
  5
A9
330
1F
100
AcDbEntity
  8
0
  6
CONTINUOUS
 62
     7
100
AcDbLine
 10
56.45593188827479
 20
142.7441963317813
 30
0.0
 11
56.45593188827479
 21
142.849247357503
 31
0.0
  0
LINE
  5
AA
330
1F
100
AcDbEntity
  8
0
  6
CONTINUOUS
 62
     7
100
AcDbLine
 10
56.45593188827479
 20
141.0441963317828
 30
0.0
 11
56.45593188827479
 21
142.7441963317813
 31
0.0
  0
LINE
  5
AB
330
1F
100
AcDbEntity
  8
0
  6
CONTINUOUS
 62
     7
100
AcDbLine
 10
55.10593188827465
 20
145.0933351022503
 30
0.0
 11
55.10593188827465
 21
145.436580553905
 31
0.0
  0
LINE
  5
AC
330
1F
100
AcDbEntity
  8
0
  6
CONTINUOUS
 62
     7
100
AcDbLine
 10
46.8059318882747
 20
145.9941963317828
 30
0.0
 11
45.3059318882747
 21
145.9941963317828
 31
0.0
  0
LINE
  5
AD
330
1F
100
AcDbEntity
  8
0
  6
CONTINUOUS
 62
     7
100
AcDbLine
 10
43.3059318882747
 20
145.9941963317828
 30
0.0
 11
42.3059318882747
 21
145.9941963317828
 31
0.0
  0
LINE
  5
AE
330
1F
100
AcDbEntity
  8
0
  6
CONTINUOUS
 62
     7
100
AcDbLine
 10
43.3059318882747
 20
140.7441962693116
 30
0.0
 11
43.3059318882747
 21
138.854093834588
 31
0.0
  0
LINE
  5
AF
330
1F
100
AcDbEntity
  8
0
  6
CONTINUOUS
 62
     7
100
AcDbLine
 10
43.3059318882747
 20
140.7441962693116
 30
0.0
 11
43.3059318882747
 21
145.9941963317828
 31
0.0
  0
LINE
  5
B0
330
1F
100
AcDbEntity
  8
0
  6
CONTINUOUS
 62
     7
100
AcDbLine
 10
42.3059318882747
 20
140.7441962693116
 30
0.0
 11
42.3059318882747
 21
138.0441963319808
 31
0.0
  0
LINE
  5
B1
330
1F
100
AcDbEntity
  8
0
  6
CONTINUOUS
 62
     7
100
AcDbLine
 10
42.3059318882747
 20
140.7441962693116
 30
0.0
 11
42.3059318882747
 21
145.9941963317828
 31
0.0
  0
LINE
  5
B2
330
1F
100
AcDbEntity
  8
0
  6
CONTINUOUS
 62
     7
100
AcDbLine
 10
43.3059318882747
 20
140.7441962693116
 30
0.0
 11
42.3059318882747
 21
140.7441962693116
 31
0.0
  0
LINE
  5
B3
330
1F
100
AcDbEntity
  8
0
  6
CONTINUOUS
 62
     7
100
AcDbLine
 10
53.40593188827461
 20
137.8441963319807
 30
0.0
 11
42.50593188827475
 21
137.8441963319807
 31
0.0
  0
LINE
  5
B4
330
1F
100
AcDbEntity
  8
0
  6
CONTINUOUS
 62
     7
100
AcDbLine
 10
49.10593188827465
 20
138.854093834588
 30
0.0
 11
49.10593188827465
 21
140.7441962692207
 31
0.0
  0
LINE
  5
B5
330
1F
100
AcDbEntity
  8
0
  6
CONTINUOUS
 62
     7
100
AcDbLine
 10
46.8059318882747
 20
140.7441962692207
 30
0.0
 11
46.8059318882747
 21
138.854093834588
 31
0.0
  0
LINE
  5
B6
330
1F
100
AcDbEntity
  8
0
  6
CONTINUOUS
 62
     7
100
AcDbLine
 10
49.10593188827465
 20
138.854093834588
 30
0.0
 11
46.8059318882747
 21
138.854093834588
 31
0.0
  0
LINE
  5
B7
330
1F
100
AcDbEntity
  8
0
  6
CONTINUOUS
 62
     7
100
AcDbLine
 10
46.8059318882747
 20
142.2441962692207
 30
0.0
 11
46.8059318882747
 21
140.7441962692207
 31
0.0
  0
LINE
  5
B8
330
1F
100
AcDbEntity
  8
0
  6
CONTINUOUS
 62
     7
100
AcDbLine
 10
45.3059318882747
 20
142.2441962692208
 30
0.0
 11
45.3059318882747
 21
145.9941963317828
 31
0.0
  0
LINE
  5
B9
330
1F
100
AcDbEntity
  8
0
  6
CONTINUOUS
 62
     7
100
AcDbLine
 10
46.8059318882747
 20
145.9941963317828
 30
0.0
 11
46.8059318882747
 21
142.2441962692207
 31
0.0
  0
LINE
  5
BA
330
1F
100
AcDbEntity
  8
0
  6
CONTINUOUS
 62
     7
100
AcDbLine
 10
53.60593188827465
 20
140.7441962693116
 30
0.0
 11
53.60593188827465
 21
145.9941963317828
 31
0.0
  0
LINE
  5
BB
330
1F
100
AcDbEntity
  8
0
  6
CONTINUOUS
 62
     7
100
AcDbLine
 10
49.10593188827465
 20
142.2441962692208
 30
0.0
 11
50.60593188827465
 21
142.2441962692207
 31
0.0
  0
LINE
  5
BC
330
1F
100
AcDbEntity
  8
0
  6
CONTINUOUS
 62
     7
100
AcDbLine
 10
49.10593188827465
 20
142.2441962692208
 30
0.0
 11
49.10593188827465
 21
145.9941963317828
 31
0.0
  0
LINE
  5
BD
330
1F
100
AcDbEntity
  8
0
  6
CONTINUOUS
 62
     7
100
AcDbLine
 10
45.3059318882747
 20
140.7441962692207
 30
0.0
 11
45.3059318882747
 21
142.2441962692208
 31
0.0
  0
LINE
  5
BE
330
1F
100
AcDbEntity
  8
0
  6
CONTINUOUS
 62
     7
100
AcDbLine
 10
45.3059318882747
 20
142.2441962692208
 30
0.0
 11
46.8059318882747
 21
142.2441962692207
 31
0.0
  0
LINE
  5
BF
330
1F
100
AcDbEntity
  8
0
  6
CONTINUOUS
 62
     7
100
AcDbLine
 10
49.10593188827465
 20
140.7441962692207
 30
0.0
 11
49.10593188827465
 21
142.2441962692208
 31
0.0
  0
LINE
  5
C0
330
1F
100
AcDbEntity
  8
0
  6
CONTINUOUS
 62
     7
100
AcDbLine
 10
50.60593188827465
 20
140.7441962692207
 30
0.0
 11
49.10593188827465
 21
140.7441962692207
 31
0.0
  0
LINE
  5
C1
330
1F
100
AcDbEntity
  8
0
  6
CONTINUOUS
 62
     7
100
AcDbLine
 10
42.00593188827475
 20
136.4441963317828
 30
0.0
 11
53.90593188827461
 21
136.4441963317828
 31
0.0
  0
LINE
  5
C2
330
1F
100
AcDbEntity
  8
0
  6
CONTINUOUS
 62
     7
100
AcDbLine
 10
45.3059318882747
 20
138.854093834588
 30
0.0
 11
45.3059318882747
 21
140.7441962692207
 31
0.0
  0
LINE
  5
C3
330
1F
100
AcDbEntity
  8
0
  6
CONTINUOUS
 62
     7
100
AcDbLine
 10
45.3059318882747
 20
138.854093834588
 30
0.0
 11
43.3059318882747
 21
138.854093834588
 31
0.0
  0
LINE
  5
C4
330
1F
100
AcDbEntity
  8
0
  6
CONTINUOUS
 62
     7
100
AcDbLine
 10
46.8059318882747
 20
140.7441962692207
 30
0.0
 11
45.3059318882747
 21
140.7441962692207
 31
0.0
  0
LINE
  5
C5
330
1F
100
AcDbEntity
  8
0
  6
CONTINUOUS
 62
     7
100
AcDbLine
 10
50.60593188827465
 20
145.9941963317828
 30
0.0
 11
49.10593188827465
 21
145.9941963317828
 31
0.0
  0
LINE
  5
C6
330
1F
100
AcDbEntity
  8
0
  6
CONTINUOUS
 62
     7
100
AcDbLine
 10
50.60593188827465
 20
142.2441962692207
 30
0.0
 11
50.60593188827465
 21
140.7441962692207
 31
0.0
  0
LINE
  5
C7
330
1F
100
AcDbEntity
  8
0
  6
CONTINUOUS
 62
     7
100
AcDbLine
 10
52.60593188827465
 20
140.7441962693116
 30
0.0
 11
52.60593188827465
 21
145.9941963317828
 31
0.0
  0
LINE
  5
C8
330
1F
100
AcDbEntity
  8
0
  6
CONTINUOUS
 62
     7
100
AcDbLine
 10
50.60593188827465
 20
138.854093834588
 30
0.0
 11
50.60593188827465
 21
140.7441962692207
 31
0.0
  0
LINE
  5
C9
330
1F
100
AcDbEntity
  8
0
  6
CONTINUOUS
 62
     7
100
AcDbLine
 10
52.60593188827465
 20
138.854093834588
 30
0.0
 11
52.60593188827465
 21
140.7441962693116
 31
0.0
  0
LINE
  5
CA
330
1F
100
AcDbEntity
  8
0
  6
CONTINUOUS
 62
     7
100
AcDbLine
 10
52.60593188827465
 20
140.7441962693116
 30
0.0
 11
53.60593188827465
 21
140.7441962693116
 31
0.0
  0
LINE
  5
CB
330
1F
100
AcDbEntity
  8
0
  6
CONTINUOUS
 62
     7
100
AcDbLine
 10
52.60593188827465
 20
138.854093834588
 30
0.0
 11
50.60593188827465
 21
138.854093834588
 31
0.0
  0
LINE
  5
CC
330
1F
100
AcDbEntity
  8
0
  6
CONTINUOUS
 62
     7
100
AcDbLine
 10
50.60593188827465
 20
142.2441962692207
 30
0.0
 11
50.60593188827465
 21
145.9941963317828
 31
0.0
  0
LINE
  5
CD
330
1F
100
AcDbEntity
  8
0
  6
CONTINUOUS
 62
     7
100
AcDbLine
 10
53.45470538396171
 20
146.4441963317827
 30
0.0
 11
53.60593188827465
 21
146.4441963317827
 31
0.0
  0
LINE
  5
CE
330
1F
100
AcDbEntity
  8
0
  6
CONTINUOUS
 62
     7
100
AcDbLine
 10
53.60593188827465
 20
146.4441963317827
 30
0.0
 11
53.60593188827465
 21
145.9941963317828
 31
0.0
  0
LINE
  5
CF
330
1F
100
AcDbEntity
  8
0
  6
CONTINUOUS
 62
     7
100
AcDbLine
 10
53.60593188827465
 20
145.9941963317828
 30
0.0
 11
52.60593188827465
 21
145.9941963317828
 31
0.0
  0
LINE
  5
D0
330
1F
100
AcDbEntity
  8
0
  6
CONTINUOUS
 62
     7
100
AcDbLine
 10
53.60593188827465
 20
138.0441963319808
 30
0.0
 11
53.60593188827465
 21
140.7441962693116
 31
0.0
  0
LINE
  5
D1
330
1F
100
AcDbEntity
  8
0
  6
CONTINUOUS
 62
     7
100
AcDbLine
 10
3.3559318591906
 20
141.2575676859443
 30
0.0
 11
3.3559318591906
 21
145.0720601631422
 31
0.0
  0
LINE
  5
D2
330
1F
100
AcDbEntity
  8
0
  6
CONTINUOUS
 62
     7
100
AcDbLine
 10
1.45593185958683
 20
136.4441963317827
 30
0.0
 11
3.1920565663238
 21
140.4646956534841
 31
0.0
  0
LINE
  5
D3
330
1F
100
AcDbEntity
  8
0
  6
CONTINUOUS
 62
     7
100
AcDbLine
 10
-15.55406767409818
 20
191.9810227958586
 30
0.0
 11
-26.75406884958125
 21
191.9810227958586
 31
0.0
  0
LINE
  5
D4
330
1F
100
AcDbEntity
  8
0
  6
CONTINUOUS
 62
     7
100
AcDbLine
 10
-12.55406767409818
 20
191.9810227958586
 30
0.0
 11
-15.55406767409818
 21
191.9810227958586
 31
0.0
  0
LINE
  5
D5
330
1F
100
AcDbEntity
  8
0
  6
CONTINUOUS
 62
     7
100
AcDbLine
 10
-11.35406767409836
 20
191.9810227958586
 30
0.0
 11
-12.55406767409818
 21
191.9810227958586
 31
0.0
  0
LINE
  5
D6
330
1F
100
AcDbEntity
  8
0
  6
CONTINUOUS
 62
     7
100
AcDbLine
 10
-8.13346121721429
 20
191.9810227958586
 30
0.0
 11
-11.35406767409836
 21
191.9810227958586
 31
0.0
  0
LINE
  5
D7
330
1F
100
AcDbEntity
  8
0
  6
CONTINUOUS
 62
     7
100
AcDbLine
 10
-7.28493307979033
 20
191.9810227958586
 30
0.0
 11
-8.13346121721429
 21
191.9810227958586
 31
0.0
  0
LINE
  5
D8
330
1F
100
AcDbEntity
  8
0
  6
CONTINUOUS
 62
     7
100
AcDbLine
 10
-1.25406811172525
 20
191.9810227958586
 30
0.0
 11
-7.28493307979033
 21
191.9810227958586
 31
0.0
  0
LINE
  5
D9
330
1F
100
AcDbEntity
  8
0
  6
CONTINUOUS
 62
     7
100
AcDbLine
 10
-0.05406860293033
 20
191.9810227958586
 30
0.0
 11
-1.25406811172525
 21
191.9810227958586
 31
0.0
  0
LINE
  5
DA
330
1F
100
AcDbEntity
  8
0
  6
CONTINUOUS
 62
     7
100
AcDbLine
 10
-24.25872179274234
 20
190.9810227958586
 30
0.0
 11
-12.85406767409836
 21
190.9810227958586
 31
0.0
  0
LINE
  5
DB
330
1F
100
AcDbEntity
  8
0
  6
CONTINUOUS
 62
     7
100
AcDbLine
 10
-24.25872179274234
 20
190.9810227958586
 30
0.0
 11
-25.60726075335333
 21
190.9810227958586
 31
0.0
  0
LINE
  5
DC
330
1F
100
AcDbEntity
  8
0
  6
CONTINUOUS
 62
     7
100
AcDbLine
 10
-7.07280104543429
 20
190.9810227958586
 30
0.0
 11
-3.55406814041339
 21
190.9810227958586
 31
0.0
  0
LINE
  5
DD
330
1F
100
AcDbEntity
  8
0
  6
CONTINUOUS
 62
     7
100
AcDbLine
 10
-11.35406767409836
 20
190.9810227958586
 30
0.0
 11
-8.13346121721429
 21
190.9810227958586
 31
0.0
  0
LINE
  5
DE
330
1F
100
AcDbEntity
  8
0
  6
CONTINUOUS
 62
     7
100
AcDbLine
 10
-8.13346121721429
 20
190.9810227958586
 30
0.0
 11
-7.07280104543429
 21
190.9810227958586
 31
0.0
  0
LINE
  5
DF
330
1F
100
AcDbEntity
  8
0
  6
CONTINUOUS
 62
     7
100
AcDbLine
 10
-3.55406814041339
 20
190.9810227958586
 30
0.0
 11
-3.25047830192625
 21
190.9810227958586
 31
0.0
  0
LINE
  5
E0
330
1F
100
AcDbEntity
  8
0
  6
CONTINUOUS
 62
     7
100
AcDbLine
 10
-12.85406767409836
 20
190.9810227958586
 30
0.0
 11
-11.35406767409836
 21
190.9810227958586
 31
0.0
  0
LINE
  5
E1
330
1F
100
AcDbEntity
  8
0
  6
CONTINUOUS
 62
     7
100
AcDbLine
 10
-27.63992526887137
 20
190.9810227958586
 30
0.0
 11
-25.75406811172525
 21
190.9810227958586
 31
0.0
  0
LINE
  5
E2
330
1F
100
AcDbEntity
  8
0
  6
CONTINUOUS
 62
     7
100
AcDbLine
 10
-25.75406811172525
 20
190.9810227958586
 30
0.0
 11
-25.60726075335333
 21
190.9810227958586
 31
0.0
  0
LINE
  5
E3
330
1F
100
AcDbEntity
  8
0
  6
CONTINUOUS
 62
     7
100
AcDbLine
 10
-28.35406811172538
 20
191.0810227958587
 30
0.0
 11
-2.9040681404133
 21
191.0810227958587
 31
0.0
  0
LINE
  5
E4
330
1F
100
AcDbEntity
  8
0
  6
CONTINUOUS
 62
     7
100
AcDbLine
 10
-3.55406814041339
 20
190.9810227958586
 30
0.0
 11
-3.55406814041339
 21
190.7810227958586
 31
0.0
  0
LINE
  5
E5
330
1F
100
AcDbEntity
  8
0
  6
CONTINUOUS
 62
     7
100
AcDbLine
 10
-25.75406811172525
 20
190.7810227958586
 30
0.0
 11
-12.85406767409836
 21
190.7810227958586
 31
0.0
  0
LINE
  5
E6
330
1F
100
AcDbEntity
  8
0
  6
CONTINUOUS
 62
     7
100
AcDbLine
 10
-12.85406767409836
 20
190.9810227958586
 30
0.0
 11
-12.85406767409836
 21
190.7810227958586
 31
0.0
  0
LINE
  5
E7
330
1F
100
AcDbEntity
  8
0
  6
CONTINUOUS
 62
     7
100
AcDbLine
 10
-25.75406811172525
 20
190.9810227958586
 30
0.0
 11
-25.75406811172525
 21
190.7810227958586
 31
0.0
  0
LINE
  5
E8
330
1F
100
AcDbEntity
  8
0
  6
CONTINUOUS
 62
     7
100
AcDbLine
 10
0.04593188827471
 20
191.8810227958586
 30
0.0
 11
-26.85406835837739
 21
191.8810227958586
 31
0.0
  0
LINE
  5
E9
330
1F
100
AcDbEntity
  8
0
  6
CONTINUOUS
 62
     7
100
AcDbLine
 10
-0.15406811172534
 20
206.9810227958586
 30
0.0
 11
-0.05406860293033
 21
206.9810227958586
 31
0.0
  0
LINE
  5
EA
330
1F
100
AcDbEntity
  8
0
  6
CONTINUOUS
 62
     7
100
AcDbLine
 10
1.3459318595867
 20
200.6310227958587
 30
0.0
 11
1.3459318595867
 21
202.1310227958587
 31
0.0
  0
LINE
  5
EB
330
1F
100
AcDbEntity
  8
0
  6
CONTINUOUS
 62
     7
100
AcDbLine
 10
0.84593188827466
 20
204.1310227958586
 30
0.0
 11
0.84593188827466
 21
202.1310227958586
 31
0.0
  0
LINE
  5
EC
330
1F
100
AcDbEntity
  8
0
  6
CONTINUOUS
 62
     7
100
AcDbLine
 10
0.84593188827466
 20
205.1310227958586
 30
0.0
 11
0.84593188827466
 21
204.1310227958586
 31
0.0
  0
LINE
  5
ED
330
1F
100
AcDbEntity
  8
0
  6
CONTINUOUS
 62
     7
100
AcDbLine
 10
0.84593188827466
 20
202.1310227958586
 30
0.0
 11
0.84593188827466
 21
200.6310227958586
 31
0.0
  0
LINE
  5
EE
330
1F
100
AcDbEntity
  8
0
  6
CONTINUOUS
 62
     7
100
AcDbLine
 10
0.96137156104783
 20
205.1310227958586
 30
0.0
 11
0.96137153407471
 21
206.2310227958586
 31
0.0
  0
LINE
  5
EF
330
1F
100
AcDbEntity
  8
0
  6
CONTINUOUS
 62
     7
100
AcDbLine
 10
1.3459318595867
 20
200.6310227958587
 30
0.0
 11
0.84593188827466
 21
200.6310227958586
 31
0.0
  0
LINE
  5
F0
330
1F
100
AcDbEntity
  8
0
  6
CONTINUOUS
 62
     7
100
AcDbLine
 10
0.84593188827466
 20
200.6310227958586
 30
0.0
 11
0.84593188827466
 21
198.3310227958587
 31
0.0
  0
LINE
  5
F1
330
1F
100
AcDbEntity
  8
0
  6
CONTINUOUS
 62
     7
100
AcDbLine
 10
1.44593185958661
 20
192.3310227958587
 30
0.0
 11
1.34593172345876
 21
192.3310227958587
 31
0.0
  0
LINE
  5
F2
330
1F
100
AcDbEntity
  8
0
  6
CONTINUOUS
 62
     7
100
AcDbLine
 10
0.84593188827466
 20
194.8310227958587
 30
0.0
 11
0.84593188827466
 21
193.8310227958587
 31
0.0
  0
LINE
  5
F3
330
1F
100
AcDbEntity
  8
0
  6
CONTINUOUS
 62
     7
100
AcDbLine
 10
0.96137156104783
 20
193.8310227958587
 30
0.0
 11
0.96137153614382
 21
192.7310227958586
 31
0.0
  0
LINE
  5
F4
330
1F
100
AcDbEntity
  8
0
  6
CONTINUOUS
 62
     7
100
AcDbLine
 10
0.84593188827466
 20
198.3310227958587
 30
0.0
 11
0.84593188827466
 21
196.8310227958587
 31
0.0
  0
LINE
  5
F5
330
1F
100
AcDbEntity
  8
0
  6
CONTINUOUS
 62
     7
100
AcDbLine
 10
1.3459318595867
 20
196.8310227958584
 30
0.0
 11
1.3459318595867
 21
198.3310227958584
 31
0.0
  0
LINE
  5
F6
330
1F
100
AcDbEntity
  8
0
  6
CONTINUOUS
 62
     7
100
AcDbLine
 10
1.3459318595867
 20
196.8310227958584
 30
0.0
 11
0.84593188827466
 21
196.8310227958587
 31
0.0
  0
LINE
  5
F7
330
1F
100
AcDbEntity
  8
0
  6
CONTINUOUS
 62
     7
100
AcDbLine
 10
0.84593188827466
 20
196.8310227958587
 30
0.0
 11
0.84593188827466
 21
194.8310227958587
 31
0.0
  0
LINE
  5
F8
330
1F
100
AcDbEntity
  8
0
  6
CONTINUOUS
 62
     7
100
AcDbLine
 10
3.34593185900462
 20
200.6310227958586
 30
0.0
 11
3.34593185900462
 21
198.3310227958584
 31
0.0
  0
LINE
  5
F9
330
1F
100
AcDbEntity
  8
0
  6
CONTINUOUS
 62
     7
100
AcDbLine
 10
3.34593185900462
 20
204.1310227958586
 30
0.0
 11
3.34593185900462
 21
202.1310227958587
 31
0.0
  0
LINE
  5
FA
330
1F
100
AcDbEntity
  8
0
  6
CONTINUOUS
 62
     7
100
AcDbLine
 10
3.34593185900462
 20
196.8310227958584
 30
0.0
 11
3.34593185900462
 21
194.8310227958587
 31
0.0
  0
LINE
  5
FB
330
1F
100
AcDbEntity
  8
0
  6
CONTINUOUS
 62
     7
100
AcDbLine
 10
3.34593185900462
 20
202.1310227958587
 30
0.0
 11
1.3459318595867
 21
202.1310227958587
 31
0.0
  0
LINE
  5
FC
330
1F
100
AcDbEntity
  8
0
  6
CONTINUOUS
 62
     7
100
AcDbLine
 10
2.05047731409172
 20
194.8310227958587
 30
0.0
 11
2.05047731409172
 21
194.0310227958586
 31
0.0
  0
LINE
  5
FD
330
1F
100
AcDbEntity
  8
0
  6
CONTINUOUS
 62
     7
100
AcDbLine
 10
2.05047731409172
 20
198.3310227958587
 30
0.0
 11
2.05047731409172
 21
196.8310227958587
 31
0.0
  0
LINE
  5
FE
330
1F
100
AcDbEntity
  8
0
  6
CONTINUOUS
 62
     7
100
AcDbLine
 10
2.05047731409172
 20
204.9310227958586
 30
0.0
 11
2.05047731409172
 21
204.1310227958586
 31
0.0
  0
LINE
  5
FF
330
1F
100
AcDbEntity
  8
0
  6
CONTINUOUS
 62
     7
100
AcDbLine
 10
2.05047731409172
 20
202.1310227958586
 30
0.0
 11
2.05047731409172
 21
200.6310227958586
 31
0.0
  0
LINE
  5
100
330
1F
100
AcDbEntity
  8
0
  6
CONTINUOUS
 62
     7
100
AcDbLine
 10
3.34593185900462
 20
200.6310227958586
 30
0.0
 11
1.3459318595867
 21
200.6310227958587
 31
0.0
  0
LINE
  5
101
330
1F
100
AcDbEntity
  8
0
  6
CONTINUOUS
 62
     7
100
AcDbLine
 10
3.34593185900462
 20
194.8310227958587
 30
0.0
 11
0.84593188827466
 21
194.8310227958587
 31
0.0
  0
LINE
  5
102
330
1F
100
AcDbEntity
  8
0
  6
CONTINUOUS
 62
     7
100
AcDbLine
 10
2.06147361199078
 20
192.3310227958587
 30
0.0
 11
2.1459318591908
 21
192.3310227958587
 31
0.0
  0
LINE
  5
103
330
1F
100
AcDbEntity
  8
0
  6
CONTINUOUS
 62
     7
100
AcDbLine
 10
1.44705192733681
 20
192.3310227958587
 30
0.0
 11
2.06147361199078
 21
192.3310227958587
 31
0.0
  0
LINE
  5
104
330
1F
100
AcDbEntity
  8
0
  6
CONTINUOUS
 62
     7
100
AcDbLine
 10
1.3459318595867
 20
198.3310227958584
 30
0.0
 11
0.84593188827466
 21
198.3310227958587
 31
0.0
  0
LINE
  5
105
330
1F
100
AcDbEntity
  8
0
  6
CONTINUOUS
 62
     7
100
AcDbLine
 10
3.34593185900462
 20
198.3310227958584
 30
0.0
 11
1.3459318595867
 21
198.3310227958584
 31
0.0
  0
LINE
  5
106
330
1F
100
AcDbEntity
  8
0
  6
CONTINUOUS
 62
     7
100
AcDbLine
 10
3.34593185900462
 20
196.8310227958584
 30
0.0
 11
1.3459318595867
 21
196.8310227958584
 31
0.0
  0
LINE
  5
107
330
1F
100
AcDbEntity
  8
0
  6
CONTINUOUS
 62
     7
100
AcDbLine
 10
3.34593185919061
 20
193.5310227958586
 30
0.0
 11
3.34593185919061
 21
193.8310227958587
 31
0.0
  0
LINE
  5
108
330
1F
100
AcDbEntity
  8
0
  6
CONTINUOUS
 62
     7
100
AcDbLine
 10
2.04138634808373
 20
193.8310227958587
 30
0.0
 11
0.96137156104783
 21
193.8310227958587
 31
0.0
  0
LINE
  5
109
330
1F
100
AcDbEntity
  8
0
  6
CONTINUOUS
 62
     7
100
AcDbLine
 10
2.46209431377269
 20
193.8310227958587
 30
0.0
 11
2.13684095043777
 21
193.8310227958587
 31
0.0
  0
LINE
  5
10A
330
1F
100
AcDbEntity
  8
0
  6
CONTINUOUS
 62
     7
100
AcDbLine
 10
2.13684095043777
 20
193.8310227958587
 30
0.0
 11
2.04138634808373
 21
193.8310227958587
 31
0.0
  0
LINE
  5
10B
330
1F
100
AcDbEntity
  8
0
  6
CONTINUOUS
 62
     7
100
AcDbLine
 10
0.84593188827466
 20
193.8310227958587
 30
0.0
 11
0.96137156104783
 21
193.8310227958587
 31
0.0
  0
LINE
  5
10C
330
1F
100
AcDbEntity
  8
0
  6
CONTINUOUS
 62
     7
100
AcDbLine
 10
2.46209431377269
 20
193.8310227958587
 30
0.0
 11
3.34593185919061
 21
193.8310227958587
 31
0.0
  0
LINE
  5
10D
330
1F
100
AcDbEntity
  8
0
  6
CONTINUOUS
 62
     7
100
AcDbLine
 10
0.84593188827466
 20
193.8310227958587
 30
0.0
 11
0.84593188827466
 21
192.6810227958588
 31
0.0
  0
LINE
  5
10E
330
1F
100
AcDbEntity
  8
0
  6
CONTINUOUS
 62
     7
100
AcDbLine
 10
1.3459318595867
 20
202.1310227958587
 30
0.0
 11
0.84593188827466
 21
202.1310227958586
 31
0.0
  0
LINE
  5
10F
330
1F
100
AcDbEntity
  8
0
  6
CONTINUOUS
 62
     7
100
AcDbLine
 10
3.34593185900462
 20
204.1310227958586
 30
0.0
 11
0.84593188827466
 21
204.1310227958586
 31
0.0
  0
LINE
  5
110
330
1F
100
AcDbEntity
  8
0
  6
CONTINUOUS
 62
     7
100
AcDbLine
 10
0.84593188827466
 20
206.2810227958586
 30
0.0
 11
0.84593188827466
 21
205.1310227958586
 31
0.0
  0
LINE
  5
111
330
1F
100
AcDbEntity
  8
0
  6
CONTINUOUS
 62
     7
100
AcDbLine
 10
2.50706747278673
 20
205.1310227958586
 30
0.0
 11
2.13684095043777
 21
205.1310227958586
 31
0.0
  0
LINE
  5
112
330
1F
100
AcDbEntity
  8
0
  6
CONTINUOUS
 62
     7
100
AcDbLine
 10
2.13684095043777
 20
205.1310227958586
 30
0.0
 11
2.10123406338675
 21
205.1310227958586
 31
0.0
  0
LINE
  5
113
330
1F
100
AcDbEntity
  8
0
  6
CONTINUOUS
 62
     7
100
AcDbLine
 10
2.10123406338675
 20
205.1310227958586
 30
0.0
 11
0.96137156104783
 21
205.1310227958586
 31
0.0
  0
LINE
  5
114
330
1F
100
AcDbEntity
  8
0
  6
CONTINUOUS
 62
     7
100
AcDbLine
 10
0.84593188827466
 20
205.1310227958586
 30
0.0
 11
0.96137156104783
 21
205.1310227958586
 31
0.0
  0
LINE
  5
115
330
1F
100
AcDbEntity
  8
0
  6
CONTINUOUS
 62
     7
100
AcDbLine
 10
2.1459318591908
 20
206.6310227958586
 30
0.0
 11
2.06855386267466
 21
206.6310227958586
 31
0.0
  0
LINE
  5
116
330
1F
100
AcDbEntity
  8
0
  6
CONTINUOUS
 62
     7
100
AcDbLine
 10
2.06855386267466
 20
206.6310227958586
 30
0.0
 11
1.46908171126165
 21
206.6310227958586
 31
0.0
  0
LINE
  5
117
330
1F
100
AcDbEntity
  8
0
  6
CONTINUOUS
 62
     7
100
AcDbLine
 10
1.34593171869665
 20
206.6310227958586
 30
0.0
 11
1.44593185958661
 21
206.6310227958586
 31
0.0
  0
LINE
  5
118
330
1F
100
AcDbEntity
  8
0
  6
CONTINUOUS
 62
     7
100
AcDbLine
 10
1.44593185958661
 20
206.6310227958586
 30
0.0
 11
1.46908171126165
 21
206.6310227958586
 31
0.0
  0
LINE
  5
119
330
1F
100
AcDbEntity
  8
0
  6
CONTINUOUS
 62
     7
100
AcDbLine
 10
3.34593185919061
 20
205.1310227958586
 30
0.0
 11
2.50706747278673
 21
205.1310227958586
 31
0.0
  0
LINE
  5
11A
330
1F
100
AcDbEntity
  8
0
  6
CONTINUOUS
 62
     7
100
AcDbLine
 10
3.34593185919061
 20
205.4310227958586
 30
0.0
 11
3.34593185919061
 21
205.1310227958586
 31
0.0
  0
LINE
  5
11B
330
1F
100
AcDbEntity
  8
0
  6
CONTINUOUS
 62
     7
100
AcDbLine
 10
1.44593185958661
 20
192.3310227958587
 30
0.0
 11
1.44593185958661
 21
190.7810227958586
 31
0.0
  0
LINE
  5
11C
330
1F
100
AcDbEntity
  8
0
  6
CONTINUOUS
 62
     7
100
AcDbLine
 10
1.44593185958661
 20
206.6310227958586
 30
0.0
 11
1.44593185958661
 21
208.1810227958586
 31
0.0
  0
LINE
  5
11D
330
1F
100
AcDbEntity
  8
0
  6
CONTINUOUS
 62
     7
100
AcDbLine
 10
-31.35406811172538
 20
201.9310227958586
 30
0.0
 11
-31.35406811172538
 21
201.9289811288374
 31
0.0
  0
LINE
  5
11E
330
1F
100
AcDbEntity
  8
0
  6
CONTINUOUS
 62
     7
100
AcDbLine
 10
-31.35406811172538
 20
197.0330644628799
 30
0.0
 11
-31.35406811172538
 21
197.0310227958586
 31
0.0
  0
LINE
  5
11F
330
1F
100
AcDbEntity
  8
0
  6
CONTINUOUS
 62
     7
100
AcDbLine
 10
-31.35406811172538
 20
201.9289811288374
 30
0.0
 11
-31.35406811172538
 21
197.0330644628799
 31
0.0
  0
LINE
  5
120
330
1F
100
AcDbEntity
  8
0
  6
CONTINUOUS
 62
     7
100
AcDbLine
 10
-25.75406811172525
 20
190.7810227958586
 30
0.0
 11
-31.35406811172538
 21
190.7810227958586
 31
0.0
  0
LINE
  5
121
330
1F
100
AcDbEntity
  8
0
  6
CONTINUOUS
 62
     7
100
AcDbLine
 10
-31.35406811172538
 20
197.0310227958586
 30
0.0
 11
-31.35406811172538
 21
190.7810227958586
 31
0.0
  0
LINE
  5
122
330
1F
100
AcDbEntity
  8
0
  6
CONTINUOUS
 62
     7
100
AcDbLine
 10
-25.75406811172525
 20
208.1810227958586
 30
0.0
 11
-25.75406811172525
 21
207.9810227958586
 31
0.0
  0
LINE
  5
123
330
1F
100
AcDbEntity
  8
0
  6
CONTINUOUS
 62
     7
100
AcDbLine
 10
-25.75406811172525
 20
207.9810227958586
 30
0.0
 11
-25.60726075335333
 21
207.9810227958586
 31
0.0
  0
LINE
  5
124
330
1F
100
AcDbEntity
  8
0
  6
CONTINUOUS
 62
     7
100
AcDbLine
 10
-27.65406835837734
 20
192.6810227958586
 30
0.0
 11
-27.65406835837734
 21
206.2810227958586
 31
0.0
  0
LINE
  5
125
330
1F
100
AcDbEntity
  8
0
  6
CONTINUOUS
 62
     7
100
AcDbLine
 10
-24.25872179274234
 20
207.9810227958586
 30
0.0
 11
-25.60726075335333
 21
207.9810227958586
 31
0.0
  0
LINE
  5
126
330
1F
100
AcDbEntity
  8
0
  6
CONTINUOUS
 62
     7
100
AcDbLine
 10
-27.63992526887137
 20
207.9810227958586
 30
0.0
 11
-25.75406811172525
 21
207.9810227958586
 31
0.0
  0
LINE
  5
127
330
1F
100
AcDbEntity
  8
0
  6
CONTINUOUS
 62
     7
100
AcDbLine
 10
-25.75406811172525
 20
208.1810227958586
 30
0.0
 11
-31.35406811172538
 21
208.1810227958586
 31
0.0
  0
LINE
  5
128
330
1F
100
AcDbEntity
  8
0
  6
CONTINUOUS
 62
     7
100
AcDbLine
 10
-26.75406884958125
 20
206.9810227958586
 30
0.0
 11
-25.35406811172538
 21
206.9810227958586
 31
0.0
  0
LINE
  5
129
330
1F
100
AcDbEntity
  8
0
  6
CONTINUOUS
 62
     7
100
AcDbLine
 10
-25.35406811172538
 20
206.9810227958586
 30
0.0
 11
-22.55406811170019
 21
206.9810227958586
 31
0.0
  0
LINE
  5
12A
330
1F
100
AcDbEntity
  8
0
  6
CONTINUOUS
 62
     7
100
AcDbLine
 10
-1.85406811172538
 20
206.9810227958586
 30
0.0
 11
-1.21406856541535
 21
206.9810227958586
 31
0.0
  0
LINE
  5
12B
330
1F
100
AcDbEntity
  8
0
  6
CONTINUOUS
 62
     7
100
AcDbLine
 10
-3.55406814041339
 20
190.7810227958586
 30
0.0
 11
1.44593185958661
 21
190.7810227958586
 31
0.0
  0
LINE
  5
12C
330
1F
100
AcDbEntity
  8
0
  6
CONTINUOUS
 62
     7
100
AcDbLine
 10
-1.21406856541535
 20
206.9810227958586
 30
0.0
 11
-0.15406811172534
 21
206.9810227958586
 31
0.0
  0
LINE
  5
12D
330
1F
100
AcDbEntity
  8
0
  6
CONTINUOUS
 62
     7
100
AcDbLine
 10
-7.28493307979033
 20
206.9810227958586
 30
0.0
 11
-1.85406811172538
 21
206.9810227958586
 31
0.0
  0
LINE
  5
12E
330
1F
100
AcDbEntity
  8
0
  6
CONTINUOUS
 62
     7
100
AcDbLine
 10
-8.13346121721429
 20
206.9810227958586
 30
0.0
 11
-7.28493307979033
 21
206.9810227958586
 31
0.0
  0
LINE
  5
12F
330
1F
100
AcDbEntity
  8
0
  6
CONTINUOUS
 62
     7
100
AcDbLine
 10
-11.35406767409836
 20
206.9810227958586
 30
0.0
 11
-8.13346121721429
 21
206.9810227958586
 31
0.0
  0
LINE
  5
130
330
1F
100
AcDbEntity
  8
0
  6
CONTINUOUS
 62
     7
100
AcDbLine
 10
-15.55406767409818
 20
206.9810227958586
 30
0.0
 11
-12.55406767409818
 21
206.9810227958586
 31
0.0
  0
LINE
  5
131
330
1F
100
AcDbEntity
  8
0
  6
CONTINUOUS
 62
     7
100
AcDbLine
 10
-12.55406767409818
 20
206.9810227958586
 30
0.0
 11
-11.35406767409836
 21
206.9810227958586
 31
0.0
  0
LINE
  5
132
330
1F
100
AcDbEntity
  8
0
  6
CONTINUOUS
 62
     7
100
AcDbLine
 10
-22.55406811170019
 20
206.9810227958586
 30
0.0
 11
-15.55406767409818
 21
206.9810227958586
 31
0.0
  0
LINE
  5
133
330
1F
100
AcDbEntity
  8
0
  6
CONTINUOUS
 62
     7
100
AcDbLine
 10
-28.35406811172538
 20
207.8810227958586
 30
0.0
 11
-2.9040681404133
 21
207.8810227958586
 31
0.0
  0
LINE
  5
134
330
1F
100
AcDbEntity
  8
0
  6
CONTINUOUS
 62
     7
100
AcDbLine
 10
-12.85406767409836
 20
207.9810227958586
 30
0.0
 11
-24.25872179274234
 21
207.9810227958586
 31
0.0
  0
LINE
  5
135
330
1F
100
AcDbEntity
  8
0
  6
CONTINUOUS
 62
     7
100
AcDbLine
 10
-8.13346121721429
 20
207.9810227958586
 30
0.0
 11
-11.35406767409836
 21
207.9810227958586
 31
0.0
  0
LINE
  5
136
330
1F
100
AcDbEntity
  8
0
  6
CONTINUOUS
 62
     7
100
AcDbLine
 10
-3.55406814041339
 20
207.9810227958586
 30
0.0
 11
-7.07280104543429
 21
207.9810227958586
 31
0.0
  0
LINE
  5
137
330
1F
100
AcDbEntity
  8
0
  6
CONTINUOUS
 62
     7
100
AcDbLine
 10
-7.07280104543429
 20
207.9810227958586
 30
0.0
 11
-8.13346121721429
 21
207.9810227958586
 31
0.0
  0
LINE
  5
138
330
1F
100
AcDbEntity
  8
0
  6
CONTINUOUS
 62
     7
100
AcDbLine
 10
-3.25047830192625
 20
207.9810227958586
 30
0.0
 11
-3.55406814041339
 21
207.9810227958586
 31
0.0
  0
LINE
  5
139
330
1F
100
AcDbEntity
  8
0
  6
CONTINUOUS
 62
     7
100
AcDbLine
 10
-11.35406767409836
 20
207.9810227958586
 30
0.0
 11
-12.85406767409836
 21
207.9810227958586
 31
0.0
  0
LINE
  5
13A
330
1F
100
AcDbEntity
  8
0
  6
CONTINUOUS
 62
     7
100
AcDbLine
 10
-31.35406811172538
 20
208.1810227958586
 30
0.0
 11
-31.35406811172538
 21
201.9310227958586
 31
0.0
  0
LINE
  5
13B
330
1F
100
AcDbEntity
  8
0
  6
CONTINUOUS
 62
     7
100
AcDbLine
 10
-12.85406767409836
 20
207.9810227958586
 30
0.0
 11
-12.85406767409836
 21
208.1810227958586
 31
0.0
  0
LINE
  5
13C
330
1F
100
AcDbEntity
  8
0
  6
CONTINUOUS
 62
     7
100
AcDbLine
 10
-25.75406811172525
 20
208.1810227958586
 30
0.0
 11
-12.85406767409836
 21
208.1810227958586
 31
0.0
  0
LINE
  5
13D
330
1F
100
AcDbEntity
  8
0
  6
CONTINUOUS
 62
     7
100
AcDbLine
 10
-3.55406814041339
 20
208.1810227958586
 30
0.0
 11
-3.55406814041339
 21
207.9810227958586
 31
0.0
  0
LINE
  5
13E
330
1F
100
AcDbEntity
  8
0
  6
CONTINUOUS
 62
     7
100
AcDbLine
 10
-26.85406835837739
 20
207.0810227958587
 30
0.0
 11
0.04593188827471
 21
207.0810227958587
 31
0.0
  0
LINE
  5
13F
330
1F
100
AcDbEntity
  8
0
  6
CONTINUOUS
 62
     7
100
AcDbLine
 10
-3.55406814041339
 20
208.1810227958586
 30
0.0
 11
1.44593185958661
 21
208.1810227958586
 31
0.0
  0
LINE
  5
140
330
1F
100
AcDbEntity
  8
0
  6
CONTINUOUS
 62
     7
100
AcDbLine
 10
-25.75406811172525
 20
207.9810227958586
 30
0.0
 11
-25.60726075335333
 21
207.9810227958586
 31
0.0
  0
LINE
  5
141
330
1F
100
AcDbEntity
  8
0
  6
CONTINUOUS
 62
     7
100
AcDbLine
 10
-24.25872179274234
 20
207.9810227958586
 30
0.0
 11
-25.60726075335333
 21
207.9810227958586
 31
0.0
  0
LINE
  5
142
330
1F
100
AcDbEntity
  8
0
  6
CONTINUOUS
 62
     7
100
AcDbLine
 10
-27.63992526887137
 20
207.9810227958586
 30
0.0
 11
-25.75406811172525
 21
207.9810227958586
 31
0.0
  0
LINE
  5
143
330
1F
100
AcDbEntity
  8
0
  6
CONTINUOUS
 62
     7
100
AcDbLine
 10
-12.85406767409836
 20
207.9810227958586
 30
0.0
 11
-24.25872179274234
 21
207.9810227958586
 31
0.0
  0
LINE
  5
144
330
1F
100
AcDbEntity
  8
0
  6
CONTINUOUS
 62
     7
100
AcDbLine
 10
-8.13346121721429
 20
207.9810227958586
 30
0.0
 11
-11.35406767409836
 21
207.9810227958586
 31
0.0
  0
LINE
  5
145
330
1F
100
AcDbEntity
  8
0
  6
CONTINUOUS
 62
     7
100
AcDbLine
 10
-3.55406814041339
 20
207.9810227958586
 30
0.0
 11
-7.07280104543429
 21
207.9810227958586
 31
0.0
  0
LINE
  5
146
330
1F
100
AcDbEntity
  8
0
  6
CONTINUOUS
 62
     7
100
AcDbLine
 10
-7.07280104543429
 20
207.9810227958586
 30
0.0
 11
-8.13346121721429
 21
207.9810227958586
 31
0.0
  0
LINE
  5
147
330
1F
100
AcDbEntity
  8
0
  6
CONTINUOUS
 62
     7
100
AcDbLine
 10
-3.25047830192625
 20
207.9810227958586
 30
0.0
 11
-3.55406814041339
 21
207.9810227958586
 31
0.0
  0
LINE
  5
148
330
1F
100
AcDbEntity
  8
0
  6
CONTINUOUS
 62
     7
100
AcDbLine
 10
-11.35406767409836
 20
207.9810227958586
 30
0.0
 11
-12.85406767409836
 21
207.9810227958586
 31
0.0
  0
LINE
  5
149
330
1F
100
AcDbEntity
  8
0
  6
CONTINUOUS
 62
     7
100
AcDbLine
 10
-31.36406811172537
 20
191.9810227958586
 30
0.0
 11
-31.35406811172538
 21
191.9810227958586
 31
0.0
  0
LINE
  5
14A
330
1F
100
AcDbEntity
  8
0
  6
CONTINUOUS
 62
     7
100
AcDbLine
 10
-31.35406811172538
 20
201.9310227958586
 30
0.0
 11
-31.35406811172538
 21
201.9289811288374
 31
0.0
  0
LINE
  5
14B
330
1F
100
AcDbEntity
  8
0
  6
CONTINUOUS
 62
     7
100
AcDbLine
 10
-31.35406811172538
 20
197.0330644628799
 30
0.0
 11
-31.35406811172538
 21
197.0310227958586
 31
0.0
  0
LINE
  5
14C
330
1F
100
AcDbEntity
  8
0
  6
CONTINUOUS
 62
     7
100
AcDbLine
 10
-31.36406811172537
 20
206.9810227958586
 30
0.0
 11
-31.35406811172538
 21
206.9810227958586
 31
0.0
  0
LINE
  5
14D
330
1F
100
AcDbEntity
  8
0
  6
CONTINUOUS
 62
     7
100
AcDbLine
 10
-31.36406811172537
 20
206.9810227958586
 30
0.0
 11
-31.36406811172537
 21
191.9810227958586
 31
0.0
  0
LINE
  5
14E
330
1F
100
AcDbEntity
  8
0
  6
CONTINUOUS
 62
     7
100
AcDbLine
 10
-15.55406767409818
 20
191.9810227958586
 30
0.0
 11
-26.75406884958125
 21
191.9810227958586
 31
0.0
  0
LINE
  5
14F
330
1F
100
AcDbEntity
  8
0
  6
CONTINUOUS
 62
     7
100
AcDbLine
 10
-12.55406767409818
 20
191.9810227958586
 30
0.0
 11
-15.55406767409818
 21
191.9810227958586
 31
0.0
  0
LINE
  5
150
330
1F
100
AcDbEntity
  8
0
  6
CONTINUOUS
 62
     7
100
AcDbLine
 10
-11.35406767409836
 20
191.9810227958586
 30
0.0
 11
-12.55406767409818
 21
191.9810227958586
 31
0.0
  0
LINE
  5
151
330
1F
100
AcDbEntity
  8
0
  6
CONTINUOUS
 62
     7
100
AcDbLine
 10
-8.13346121721429
 20
191.9810227958586
 30
0.0
 11
-11.35406767409836
 21
191.9810227958586
 31
0.0
  0
LINE
  5
152
330
1F
100
AcDbEntity
  8
0
  6
CONTINUOUS
 62
     7
100
AcDbLine
 10
-7.28493307979033
 20
191.9810227958586
 30
0.0
 11
-8.13346121721429
 21
191.9810227958586
 31
0.0
  0
LINE
  5
153
330
1F
100
AcDbEntity
  8
0
  6
CONTINUOUS
 62
     7
100
AcDbLine
 10
-1.25406811172525
 20
191.9810227958586
 30
0.0
 11
-7.28493307979033
 21
191.9810227958586
 31
0.0
  0
LINE
  5
154
330
1F
100
AcDbEntity
  8
0
  6
CONTINUOUS
 62
     7
100
AcDbLine
 10
-0.05406860293033
 20
191.9810227958586
 30
0.0
 11
-1.25406811172525
 21
191.9810227958586
 31
0.0
  0
LINE
  5
155
330
1F
100
AcDbEntity
  8
0
  6
CONTINUOUS
 62
     7
100
AcDbLine
 10
-24.25406884958125
 20
193.6810227958586
 30
0.0
 11
-22.70406860292928
 21
193.6810227958586
 31
0.0
  0
LINE
  5
156
330
1F
100
AcDbEntity
  8
0
  6
CONTINUOUS
 62
     7
100
AcDbLine
 10
-22.70406860292928
 20
193.9810227958585
 30
0.0
 11
-24.20406860292928
 21
193.9810227958585
 31
0.0
  0
LINE
  5
157
330
1F
100
AcDbEntity
  8
0
  6
CONTINUOUS
 62
     7
100
AcDbLine
 10
0.74593139706963
 20
206.1810227958586
 30
0.0
 11
0.74593139706963
 21
192.7810227958586
 31
0.0
  0
LINE
  5
158
330
1F
100
AcDbEntity
  8
0
  6
CONTINUOUS
 62
     7
100
AcDbLine
 10
-0.15406811172534
 20
206.9810227958586
 30
0.0
 11
-0.05406860293033
 21
206.9810227958586
 31
0.0
  0
LINE
  5
159
330
1F
100
AcDbEntity
  8
0
  6
CONTINUOUS
 62
     7
100
AcDbLine
 10
-27.5540688495812
 20
192.7810227958586
 30
0.0
 11
-27.5540688495812
 21
206.1810227958586
 31
0.0
  0
LINE
  5
15A
330
1F
100
AcDbEntity
  8
0
  6
CONTINUOUS
 62
     7
100
AcDbLine
 10
-25.85406884958138
 20
203.6810227958586
 30
0.0
 11
-25.85406884958138
 21
195.2810227958586
 31
0.0
  0
LINE
  5
15B
330
1F
100
AcDbEntity
  8
0
  6
CONTINUOUS
 62
     7
100
AcDbLine
 10
-26.75406884958125
 20
206.9810227958586
 30
0.0
 11
-25.35406811172538
 21
206.9810227958586
 31
0.0
  0
LINE
  5
15C
330
1F
100
AcDbEntity
  8
0
  6
CONTINUOUS
 62
     7
100
AcDbLine
 10
-25.35406811172538
 20
206.9810227958586
 30
0.0
 11
-22.55406811170019
 21
206.9810227958586
 31
0.0
  0
LINE
  5
15D
330
1F
100
AcDbEntity
  8
0
  6
CONTINUOUS
 62
     7
100
AcDbLine
 10
-25.50406860292924
 20
199.7810227958586
 30
0.0
 11
-25.50406860292924
 21
203.6810227958586
 31
0.0
  0
LINE
  5
15E
330
1F
100
AcDbEntity
  8
0
  6
CONTINUOUS
 62
     7
100
AcDbLine
 10
-25.50406860292924
 20
199.1810227958586
 30
0.0
 11
-25.50406860292924
 21
199.7810227958586
 31
0.0
  0
LINE
  5
15F
330
1F
100
AcDbEntity
  8
0
  6
CONTINUOUS
 62
     7
100
AcDbLine
 10
-21.40406860292933
 20
199.7810227958586
 30
0.0
 11
-21.40406860292933
 21
203.6810227958586
 31
0.0
  0
LINE
  5
160
330
1F
100
AcDbEntity
  8
0
  6
CONTINUOUS
 62
     7
100
AcDbLine
 10
-21.40406860292933
 20
199.1810227958586
 30
0.0
 11
-21.40406860292933
 21
199.7810227958586
 31
0.0
  0
LINE
  5
161
330
1F
100
AcDbEntity
  8
0
  6
CONTINUOUS
 62
     7
100
AcDbLine
 10
-25.50406860292924
 20
199.1810227958586
 30
0.0
 11
-21.40406860292933
 21
199.1810227958586
 31
0.0
  0
LINE
  5
162
330
1F
100
AcDbEntity
  8
0
  6
CONTINUOUS
 62
     7
100
AcDbLine
 10
-25.50406860292924
 20
199.7810227958586
 30
0.0
 11
-21.40406860292933
 21
199.7810227958586
 31
0.0
  0
LINE
  5
163
330
1F
100
AcDbEntity
  8
0
  6
CONTINUOUS
 62
     7
100
AcDbLine
 10
-24.20406860292928
 20
204.9810227958586
 30
0.0
 11
-22.70406860292928
 21
204.9810227958586
 31
0.0
  0
LINE
  5
164
330
1F
100
AcDbEntity
  8
0
  6
CONTINUOUS
 62
     7
100
AcDbLine
 10
-22.70406860292928
 20
205.2810227958586
 30
0.0
 11
-24.25406884958125
 21
205.2810227958586
 31
0.0
  0
LINE
  5
165
330
1F
100
AcDbEntity
  8
0
  6
CONTINUOUS
 62
     7
100
AcDbLine
 10
-25.50406860292924
 20
195.2810227958586
 30
0.0
 11
-25.50406860292924
 21
199.1810227958586
 31
0.0
  0
LINE
  5
166
330
1F
100
AcDbEntity
  8
0
  6
CONTINUOUS
 62
     7
100
AcDbLine
 10
-21.10406860292937
 20
203.6810227958586
 30
0.0
 11
-21.10406860292937
 21
202.6810227958587
 31
0.0
  0
LINE
  5
167
330
1F
100
AcDbEntity
  8
0
  6
CONTINUOUS
 62
     7
100
AcDbLine
 10
-21.40406860292933
 20
195.2810227958586
 30
0.0
 11
-21.40406860292933
 21
199.1810227958586
 31
0.0
  0
LINE
  5
168
330
1F
100
AcDbEntity
  8
0
  6
DOTTED
 62
     7
100
AcDbLine
 10
-20.56693656857328
 20
197.1931548302146
 30
0.0
 11
-20.07906860292928
 21
197.6810227958586
 31
0.0
  0
LINE
  5
169
330
1F
100
AcDbEntity
  8
0
  6
DOTTED
 62
     7
100
AcDbLine
 10
-20.67906860292919
 20
197.3052868645705
 30
0.0
 11
-20.56693656857328
 21
197.1931548302146
 31
0.0
  0
LINE
  5
16A
330
1F
100
AcDbEntity
  8
0
  6
DOTTED
 62
     7
100
AcDbLine
 10
-20.25480453421733
 20
196.8810227958586
 30
0.0
 11
-17.90333267164124
 21
196.8810227958586
 31
0.0
  0
LINE
  5
16B
330
1F
100
AcDbEntity
  8
0
  6
DOTTED
 62
     7
100
AcDbLine
 10
-17.79120063728533
 20
196.9931548302145
 30
0.0
 11
-18.27906860292933
 21
197.4810227958586
 31
0.0
  0
LINE
  5
16C
330
1F
100
AcDbEntity
  8
0
  6
DOTTED
 62
     7
100
AcDbLine
 10
-17.90333267164124
 20
196.8810227958586
 30
0.0
 11
-17.79120063728533
 21
196.9931548302145
 31
0.0
  0
LINE
  5
16D
330
1F
100
AcDbEntity
  8
0
  6
DOTTED
 62
     7
100
AcDbLine
 10
-18.27906860292933
 20
197.4810227958586
 30
0.0
 11
-19.87906860292924
 21
197.4810227958586
 31
0.0
  0
LINE
  5
16E
330
1F
100
AcDbEntity
  8
0
  6
DOTTED
 62
     7
100
AcDbLine
 10
-20.36693656857324
 20
201.9688907615026
 30
0.0
 11
-19.87906860292924
 21
201.4810227958586
 31
0.0
  0
LINE
  5
16F
330
1F
100
AcDbEntity
  8
0
  6
DOTTED
 62
     7
100
AcDbLine
 10
-19.87906860292924
 20
201.4810227958586
 30
0.0
 11
-18.27906860292933
 21
201.4810227958586
 31
0.0
  0
LINE
  5
170
330
1F
100
AcDbEntity
  8
0
  6
DOTTED
 62
     7
100
AcDbLine
 10
-18.27906860292933
 20
199.7810227958586
 30
0.0
 11
-19.87906860292924
 21
199.7810227958586
 31
0.0
  0
LINE
  5
171
330
1F
100
AcDbEntity
  8
0
  6
DOTTED
 62
     7
100
AcDbLine
 10
-20.17906860292919
 20
199.4810227958586
 30
0.0
 11
-19.87906860292924
 21
199.1810227958586
 31
0.0
  0
LINE
  5
172
330
1F
100
AcDbEntity
  8
0
  6
DOTTED
 62
     7
100
AcDbLine
 10
-20.42906860292919
 20
199.6310227958586
 30
0.0
 11
-20.07906860292928
 21
199.9810227958586
 31
0.0
  0
LINE
  5
173
330
1F
100
AcDbEntity
  8
0
  6
DOTTED
 62
     7
100
AcDbLine
 10
-20.42906860292919
 20
199.3310227958587
 30
0.0
 11
-20.67906860292919
 21
199.3310227958587
 31
0.0
  0
LINE
  5
174
330
1F
100
AcDbEntity
  8
0
  6
DOTTED
 62
     7
100
AcDbLine
 10
-20.07906860292928
 20
198.9810227958586
 30
0.0
 11
-20.42906860292919
 21
199.3310227958587
 31
0.0
  0
LINE
  5
175
330
1F
100
AcDbEntity
  8
0
  6
DOTTED
 62
     7
100
AcDbLine
 10
-20.67906860292919
 20
199.6310227958586
 30
0.0
 11
-20.42906860292919
 21
199.6310227958586
 31
0.0
  0
LINE
  5
176
330
1F
100
AcDbEntity
  8
0
  6
DOTTED
 62
     7
100
AcDbLine
 10
-19.87906860292924
 20
199.7810227958586
 30
0.0
 11
-20.17906860292919
 21
199.4810227958586
 31
0.0
  0
LINE
  5
177
330
1F
100
AcDbEntity
  8
0
  6
DOTTED
 62
     7
100
AcDbLine
 10
-19.87906860292924
 20
199.1810227958586
 30
0.0
 11
-18.27906860292933
 21
199.1810227958586
 31
0.0
  0
LINE
  5
178
330
1F
100
AcDbEntity
  8
0
  6
DOTTED
 62
     7
100
AcDbLine
 10
-17.90333267164124
 20
202.0810227958587
 30
0.0
 11
-20.25480453421733
 21
202.0810227958587
 31
0.0
  0
LINE
  5
179
330
1F
100
AcDbEntity
  8
0
  6
DOTTED
 62
     7
100
AcDbLine
 10
-20.07906860292928
 20
201.2810227958586
 30
0.0
 11
-20.56693656857328
 21
201.7688907615027
 31
0.0
  0
LINE
  5
17A
330
1F
100
AcDbEntity
  8
0
  6
DOTTED
 62
     7
100
AcDbLine
 10
-20.07906860292928
 20
199.9810227958586
 30
0.0
 11
-20.07906860292928
 21
201.2810227958586
 31
0.0
  0
LINE
  5
17B
330
1F
100
AcDbEntity
  8
0
  6
DOTTED
 62
     7
100
AcDbLine
 10
-20.07906860292928
 20
197.6810227958586
 30
0.0
 11
-20.07906860292928
 21
198.9810227958586
 31
0.0
  0
LINE
  5
17C
330
1F
100
AcDbEntity
  8
0
  6
DOTTED
 62
     7
100
AcDbLine
 10
-19.87906860292924
 20
197.4810227958586
 30
0.0
 11
-20.36693656857324
 21
196.9931548302145
 31
0.0
  0
LINE
  5
17D
330
1F
100
AcDbEntity
  8
0
  6
DOTTED
 62
     7
100
AcDbLine
 10
-20.36693656857324
 20
196.9931548302145
 30
0.0
 11
-20.25480453421733
 21
196.8810227958586
 31
0.0
  0
LINE
  5
17E
330
1F
100
AcDbEntity
  8
0
  6
DOTTED
 62
     7
100
AcDbLine
 10
-20.25480453421733
 20
202.0810227958587
 30
0.0
 11
-20.36693656857324
 21
201.9688907615026
 31
0.0
  0
LINE
  5
17F
330
1F
100
AcDbEntity
  8
0
  6
DOTTED
 62
     7
100
AcDbLine
 10
-20.56693656857328
 20
201.7688907615027
 30
0.0
 11
-20.67906860292919
 21
201.6567587271467
 31
0.0
  0
LINE
  5
180
330
1F
100
AcDbEntity
  8
0
  6
DOTTED
 62
     7
100
AcDbLine
 10
-20.67906860292919
 20
201.6567587271467
 30
0.0
 11
-20.67906860292919
 21
199.6310227958586
 31
0.0
  0
LINE
  5
181
330
1F
100
AcDbEntity
  8
0
  6
DOTTED
 62
     7
100
AcDbLine
 10
-20.67906860292919
 20
199.3310227958587
 30
0.0
 11
-20.67906860292919
 21
197.3052868645705
 31
0.0
  0
LINE
  5
182
330
1F
100
AcDbEntity
  8
0
  6
DOTTED
 62
     7
100
AcDbLine
 10
-18.27906860292933
 20
201.4810227958586
 30
0.0
 11
-17.79120063728533
 21
201.9688907615026
 31
0.0
  0
LINE
  5
183
330
1F
100
AcDbEntity
  8
0
  6
DOTTED
 62
     7
100
AcDbLine
 10
-18.27906860292933
 20
199.1810227958586
 30
0.0
 11
-17.97906860292937
 21
199.4810227958586
 31
0.0
  0
LINE
  5
184
330
1F
100
AcDbEntity
  8
0
  6
DOTTED
 62
     7
100
AcDbLine
 10
-17.97906860292937
 20
199.4810227958586
 30
0.0
 11
-18.27906860292933
 21
199.7810227958586
 31
0.0
  0
LINE
  5
185
330
1F
100
AcDbEntity
  8
0
  6
DOTTED
 62
     7
100
AcDbLine
 10
-18.07906860292928
 20
198.9810227958586
 30
0.0
 11
-18.07906860292928
 21
197.6810227958586
 31
0.0
  0
LINE
  5
186
330
1F
100
AcDbEntity
  8
0
  6
DOTTED
 62
     7
100
AcDbLine
 10
-18.07906860292928
 20
201.2810227958586
 30
0.0
 11
-18.07906860292928
 21
199.9810227958586
 31
0.0
  0
LINE
  5
187
330
1F
100
AcDbEntity
  8
0
  6
DOTTED
 62
     7
100
AcDbLine
 10
-17.47906860292937
 20
197.3052868645706
 30
0.0
 11
-17.47906860292937
 21
199.3310227958587
 31
0.0
  0
LINE
  5
188
330
1F
100
AcDbEntity
  8
0
  6
DOTTED
 62
     7
100
AcDbLine
 10
-18.07906860292928
 20
197.6810227958586
 30
0.0
 11
-17.59120063728528
 21
197.1931548302146
 31
0.0
  0
LINE
  5
189
330
1F
100
AcDbEntity
  8
0
  6
DOTTED
 62
     7
100
AcDbLine
 10
-17.59120063728528
 20
197.1931548302146
 30
0.0
 11
-17.47906860292937
 21
197.3052868645706
 31
0.0
  0
LINE
  5
18A
330
1F
100
AcDbEntity
  8
0
  6
CONTINUOUS
 62
     7
100
AcDbLine
 10
-4.25406860292924
 20
199.7810227958586
 30
0.0
 11
-4.25406860292924
 21
203.6810227958586
 31
0.0
  0
LINE
  5
18B
330
1F
100
AcDbEntity
  8
0
  6
CONTINUOUS
 62
     7
100
AcDbLine
 10
-4.25406860292924
 20
199.1810227958586
 30
0.0
 11
-4.25406860292924
 21
199.7810227958586
 31
0.0
  0
LINE
  5
18C
330
1F
100
AcDbEntity
  8
0
  6
CONTINUOUS
 62
     7
100
AcDbLine
 10
-8.35406860292937
 20
199.7810227958586
 30
0.0
 11
-8.35406860292937
 21
203.6810227958586
 31
0.0
  0
LINE
  5
18D
330
1F
100
AcDbEntity
  8
0
  6
CONTINUOUS
 62
     7
100
AcDbLine
 10
-8.35406860292937
 20
199.7810227958586
 30
0.0
 11
-8.35406860292937
 21
199.1810227958586
 31
0.0
  0
LINE
  5
18E
330
1F
100
AcDbEntity
  8
0
  6
CONTINUOUS
 62
     7
100
AcDbLine
 10
-8.65406860292933
 20
195.2810227958586
 30
0.0
 11
-8.65406860292933
 21
196.2810227958586
 31
0.0
  0
LINE
  5
18F
330
1F
100
AcDbEntity
  8
0
  6
DOTTED
 62
     7
100
AcDbLine
 10
-9.07906860292928
 20
199.3310227958587
 30
0.0
 11
-9.32906860292928
 21
199.3310227958587
 31
0.0
  0
LINE
  5
190
330
1F
100
AcDbEntity
  8
0
  6
DOTTED
 62
     7
100
AcDbLine
 10
-9.07906860292928
 20
199.6310227958586
 30
0.0
 11
-9.07906860292928
 21
201.6567587271467
 31
0.0
  0
LINE
  5
191
330
1F
100
AcDbEntity
  8
0
  6
DOTTED
 62
     7
100
AcDbLine
 10
-9.32906860292928
 20
199.6310227958586
 30
0.0
 11
-9.07906860292928
 21
199.6310227958586
 31
0.0
  0
LINE
  5
192
330
1F
100
AcDbEntity
  8
0
  6
DOTTED
 62
     7
100
AcDbLine
 10
-9.07906860292928
 20
201.6567587271467
 30
0.0
 11
-9.19120063728519
 21
201.7688907615027
 31
0.0
  0
LINE
  5
193
330
1F
100
AcDbEntity
  8
0
  6
DOTTED
 62
     7
100
AcDbLine
 10
-12.27906860292933
 20
199.3310227958587
 30
0.0
 11
-12.27906860292933
 21
197.3052868645706
 31
0.0
  0
LINE
  5
194
330
1F
100
AcDbEntity
  8
0
  6
CONTINUOUS
 62
     7
100
AcDbLine
 10
-7.05406860292919
 20
193.6810227958586
 30
0.0
 11
-5.50406860293037
 21
193.6810227958586
 31
0.0
  0
LINE
  5
195
330
1F
100
AcDbEntity
  8
0
  6
CONTINUOUS
 62
     7
100
AcDbLine
 10
-5.55406860292919
 20
193.9810227958585
 30
0.0
 11
-7.05406860292919
 21
193.9810227958585
 31
0.0
  0
LINE
  5
196
330
1F
100
AcDbEntity
  8
0
  6
DOTTED
 62
     7
100
AcDbLine
 10
-16.05480453421728
 20
196.8810227958586
 30
0.0
 11
-13.70333267164119
 21
196.8810227958586
 31
0.0
  0
LINE
  5
197
330
1F
100
AcDbEntity
  8
0
  6
DOTTED
 62
     7
100
AcDbLine
 10
-16.16693656857319
 20
196.9931548302145
 30
0.0
 11
-16.05480453421728
 21
196.8810227958586
 31
0.0
  0
LINE
  5
198
330
1F
100
AcDbEntity
  8
0
  6
DOTTED
 62
     7
100
AcDbLine
 10
-9.19120063728519
 20
197.1931548302146
 30
0.0
 11
-9.07906860292928
 21
197.3052868645706
 31
0.0
  0
LINE
  5
199
330
1F
100
AcDbEntity
  8
0
  6
DOTTED
 62
     7
100
AcDbLine
 10
-9.50333267164137
 20
196.8810227958586
 30
0.0
 11
-9.39120063728524
 21
196.9931548302145
 31
0.0
  0
LINE
  5
19A
330
1F
100
AcDbEntity
  8
0
  6
DOTTED
 62
     7
100
AcDbLine
 10
-13.70333267164119
 20
196.8810227958586
 30
0.0
 11
-13.59120063728528
 21
196.9931548302145
 31
0.0
  0
LINE
  5
19B
330
1F
100
AcDbEntity
  8
0
  6
DOTTED
 62
     7
100
AcDbLine
 10
-11.96693656857337
 20
196.9931548302146
 30
0.0
 11
-11.85480453421724
 21
196.8810227958586
 31
0.0
  0
LINE
  5
19C
330
1F
100
AcDbEntity
  8
0
  6
DOTTED
 62
     7
100
AcDbLine
 10
-11.85480453421724
 20
196.8810227958586
 30
0.0
 11
-9.50333267164137
 21
196.8810227958586
 31
0.0
  0
LINE
  5
19D
330
1F
100
AcDbEntity
  8
0
  6
DOTTED
 62
     7
100
AcDbLine
 10
-16.47906860292937
 20
197.3052868645706
 30
0.0
 11
-16.36693656857324
 21
197.1931548302146
 31
0.0
  0
LINE
  5
19E
330
1F
100
AcDbEntity
  8
0
  6
DOTTED
 62
     7
100
AcDbLine
 10
-13.39120063728524
 20
197.1931548302146
 30
0.0
 11
-13.27906860292933
 21
197.3052868645705
 31
0.0
  0
LINE
  5
19F
330
1F
100
AcDbEntity
  8
0
  6
DOTTED
 62
     7
100
AcDbLine
 10
-16.36693656857324
 20
197.1931548302146
 30
0.0
 11
-15.87906860292924
 21
197.6810227958586
 31
0.0
  0
LINE
  5
1A0
330
1F
100
AcDbEntity
  8
0
  6
DOTTED
 62
     7
100
AcDbLine
 10
-16.47906860292937
 20
199.3310227958587
 30
0.0
 11
-16.47906860292937
 21
197.3052868645706
 31
0.0
  0
LINE
  5
1A1
330
1F
100
AcDbEntity
  8
0
  6
DOTTED
 62
     7
100
AcDbLine
 10
-11.67906860292919
 20
197.6810227958586
 30
0.0
 11
-11.67906860292919
 21
198.9810227958586
 31
0.0
  0
LINE
  5
1A2
330
1F
100
AcDbEntity
  8
0
  6
DOTTED
 62
     7
100
AcDbLine
 10
-9.67906860292919
 20
197.6810227958586
 30
0.0
 11
-9.19120063728519
 21
197.1931548302146
 31
0.0
  0
LINE
  5
1A3
330
1F
100
AcDbEntity
  8
0
  6
DOTTED
 62
     7
100
AcDbLine
 10
-13.27906860292933
 20
197.3052868645705
 30
0.0
 11
-13.27906860292933
 21
199.3310227958587
 31
0.0
  0
LINE
  5
1A4
330
1F
100
AcDbEntity
  8
0
  6
DOTTED
 62
     7
100
AcDbLine
 10
-13.87906860292924
 20
198.9810227958586
 30
0.0
 11
-13.87906860292924
 21
197.6810227958586
 31
0.0
  0
LINE
  5
1A5
330
1F
100
AcDbEntity
  8
0
  6
DOTTED
 62
     7
100
AcDbLine
 10
-15.87906860292924
 20
198.9810227958586
 30
0.0
 11
-16.22906860292937
 21
199.3310227958587
 31
0.0
  0
LINE
  5
1A6
330
1F
100
AcDbEntity
  8
0
  6
DOTTED
 62
     7
100
AcDbLine
 10
-13.87906860292924
 20
197.6810227958586
 30
0.0
 11
-13.39120063728524
 21
197.1931548302146
 31
0.0
  0
LINE
  5
1A7
330
1F
100
AcDbEntity
  8
0
  6
DOTTED
 62
     7
100
AcDbLine
 10
-13.59120063728528
 20
196.9931548302145
 30
0.0
 11
-14.07906860292928
 21
197.4810227958586
 31
0.0
  0
LINE
  5
1A8
330
1F
100
AcDbEntity
  8
0
  6
DOTTED
 62
     7
100
AcDbLine
 10
-11.47906860292937
 20
197.4810227958586
 30
0.0
 11
-11.96693656857337
 21
196.9931548302146
 31
0.0
  0
LINE
  5
1A9
330
1F
100
AcDbEntity
  8
0
  6
DOTTED
 62
     7
100
AcDbLine
 10
-12.27906860292933
 20
197.3052868645706
 30
0.0
 11
-12.16693656857319
 21
197.1931548302146
 31
0.0
  0
LINE
  5
1AA
330
1F
100
AcDbEntity
  8
0
  6
DOTTED
 62
     7
100
AcDbLine
 10
-12.16693656857319
 20
197.1931548302146
 30
0.0
 11
-11.67906860292919
 21
197.6810227958586
 31
0.0
  0
LINE
  5
1AB
330
1F
100
AcDbEntity
  8
0
  6
DOTTED
 62
     7
100
AcDbLine
 10
-14.07906860292928
 20
197.4810227958586
 30
0.0
 11
-15.67906860292919
 21
197.4810227958586
 31
0.0
  0
LINE
  5
1AC
330
1F
100
AcDbEntity
  8
0
  6
DOTTED
 62
     7
100
AcDbLine
 10
-9.87906860292924
 20
197.4810227958586
 30
0.0
 11
-11.47906860292937
 21
197.4810227958586
 31
0.0
  0
LINE
  5
1AD
330
1F
100
AcDbEntity
  8
0
  6
CONTINUOUS
 62
     7
100
AcDbLine
 10
-4.25406860292924
 20
195.2810227958586
 30
0.0
 11
-4.25406860292924
 21
199.1810227958586
 31
0.0
  0
LINE
  5
1AE
330
1F
100
AcDbEntity
  8
0
  6
DOTTED
 62
     7
100
AcDbLine
 10
-9.39120063728524
 20
196.9931548302145
 30
0.0
 11
-9.87906860292924
 21
197.4810227958586
 31
0.0
  0
LINE
  5
1AF
330
1F
100
AcDbEntity
  8
0
  6
DOTTED
 62
     7
100
AcDbLine
 10
-15.67906860292919
 20
197.4810227958586
 30
0.0
 11
-16.16693656857319
 21
196.9931548302145
 31
0.0
  0
LINE
  5
1B0
330
1F
100
AcDbEntity
  8
0
  6
DOTTED
 62
     7
100
AcDbLine
 10
-15.87906860292924
 20
197.6810227958586
 30
0.0
 11
-15.87906860292924
 21
198.9810227958586
 31
0.0
  0
LINE
  5
1B1
330
1F
100
AcDbEntity
  8
0
  6
CONTINUOUS
 62
     7
100
AcDbLine
 10
-8.35406860292937
 20
199.1810227958586
 30
0.0
 11
-4.25406860292924
 21
199.1810227958586
 31
0.0
  0
LINE
  5
1B2
330
1F
100
AcDbEntity
  8
0
  6
DOTTED
 62
     7
100
AcDbLine
 10
-11.67906860292919
 20
198.9810227958586
 30
0.0
 11
-12.02906860292933
 21
199.3310227958587
 31
0.0
  0
LINE
  5
1B3
330
1F
100
AcDbEntity
  8
0
  6
DOTTED
 62
     7
100
AcDbLine
 10
-11.47906860292937
 20
199.1810227958586
 30
0.0
 11
-9.87906860292924
 21
199.1810227958586
 31
0.0
  0
LINE
  5
1B4
330
1F
100
AcDbEntity
  8
0
  6
DOTTED
 62
     7
100
AcDbLine
 10
-15.67906860292919
 20
199.1810227958586
 30
0.0
 11
-14.07906860292928
 21
199.1810227958586
 31
0.0
  0
LINE
  5
1B5
330
1F
100
AcDbEntity
  8
0
  6
DOTTED
 62
     7
100
AcDbLine
 10
-16.22906860292937
 20
199.3310227958587
 30
0.0
 11
-16.47906860292937
 21
199.3310227958587
 31
0.0
  0
LINE
  5
1B6
330
1F
100
AcDbEntity
  8
0
  6
DOTTED
 62
     7
100
AcDbLine
 10
-12.02906860292933
 20
199.3310227958587
 30
0.0
 11
-12.27906860292933
 21
199.3310227958587
 31
0.0
  0
LINE
  5
1B7
330
1F
100
AcDbEntity
  8
0
  6
CONTINUOUS
 62
     7
100
AcDbLine
 10
-8.35406860292937
 20
195.2810227958586
 30
0.0
 11
-8.35406860292937
 21
199.1810227958586
 31
0.0
  0
LINE
  5
1B8
330
1F
100
AcDbEntity
  8
0
  6
DOTTED
 62
     7
100
AcDbLine
 10
-9.07906860292928
 20
197.3052868645706
 30
0.0
 11
-9.07906860292928
 21
199.3310227958587
 31
0.0
  0
LINE
  5
1B9
330
1F
100
AcDbEntity
  8
0
  6
DOTTED
 62
     7
100
AcDbLine
 10
-9.67906860292919
 20
198.9810227958586
 30
0.0
 11
-9.67906860292919
 21
197.6810227958586
 31
0.0
  0
LINE
  5
1BA
330
1F
100
AcDbEntity
  8
0
  6
DOTTED
 62
     7
100
AcDbLine
 10
-9.32906860292928
 20
199.3310227958587
 30
0.0
 11
-9.67906860292919
 21
198.9810227958586
 31
0.0
  0
LINE
  5
1BB
330
1F
100
AcDbEntity
  8
0
  6
CONTINUOUS
 62
     7
100
AcDbLine
 10
-3.90406860292933
 20
195.2810227958586
 30
0.0
 11
-3.90406860292933
 21
203.6810227958586
 31
0.0
  0
LINE
  5
1BC
330
1F
100
AcDbEntity
  8
0
  6
CONTINUOUS
 62
     7
100
AcDbLine
 10
-1.85406811172538
 20
206.9810227958586
 30
0.0
 11
-1.21406856541535
 21
206.9810227958586
 31
0.0
  0
LINE
  5
1BD
330
1F
100
AcDbEntity
  8
0
  6
CONTINUOUS
 62
     7
100
AcDbLine
 10
-1.21406856541535
 20
206.9810227958586
 30
0.0
 11
-0.15406811172534
 21
206.9810227958586
 31
0.0
  0
LINE
  5
1BE
330
1F
100
AcDbEntity
  8
0
  6
CONTINUOUS
 62
     7
100
AcDbLine
 10
-5.50406860293037
 20
205.2810227958586
 30
0.0
 11
-7.05406860292919
 21
205.2810227958586
 31
0.0
  0
LINE
  5
1BF
330
1F
100
AcDbEntity
  8
0
  6
CONTINUOUS
 62
     7
100
AcDbLine
 10
-5.55406860292919
 20
204.9810227958586
 30
0.0
 11
-7.05406860292919
 21
204.9810227958586
 31
0.0
  0
LINE
  5
1C0
330
1F
100
AcDbEntity
  8
0
  6
CONTINUOUS
 62
     7
100
AcDbLine
 10
-7.28493307979033
 20
206.9810227958586
 30
0.0
 11
-1.85406811172538
 21
206.9810227958586
 31
0.0
  0
LINE
  5
1C1
330
1F
100
AcDbEntity
  8
0
  6
CONTINUOUS
 62
     7
100
AcDbLine
 10
-8.13346121721429
 20
206.9810227958586
 30
0.0
 11
-7.28493307979033
 21
206.9810227958586
 31
0.0
  0
LINE
  5
1C2
330
1F
100
AcDbEntity
  8
0
  6
CONTINUOUS
 62
     7
100
AcDbLine
 10
-11.35406767409836
 20
206.9810227958586
 30
0.0
 11
-8.13346121721429
 21
206.9810227958586
 31
0.0
  0
LINE
  5
1C3
330
1F
100
AcDbEntity
  8
0
  6
CONTINUOUS
 62
     7
100
AcDbLine
 10
-15.55406767409818
 20
206.9810227958586
 30
0.0
 11
-12.55406767409818
 21
206.9810227958586
 31
0.0
  0
LINE
  5
1C4
330
1F
100
AcDbEntity
  8
0
  6
CONTINUOUS
 62
     7
100
AcDbLine
 10
-12.55406767409818
 20
206.9810227958586
 30
0.0
 11
-11.35406767409836
 21
206.9810227958586
 31
0.0
  0
LINE
  5
1C5
330
1F
100
AcDbEntity
  8
0
  6
CONTINUOUS
 62
     7
100
AcDbLine
 10
-22.55406811170019
 20
206.9810227958586
 30
0.0
 11
-15.55406767409818
 21
206.9810227958586
 31
0.0
  0
LINE
  5
1C6
330
1F
100
AcDbEntity
  8
0
  6
DOTTED
 62
     7
100
AcDbLine
 10
-14.07906860292928
 20
201.4810227958586
 30
0.0
 11
-13.59120063728528
 21
201.9688907615026
 31
0.0
  0
LINE
  5
1C7
330
1F
100
AcDbEntity
  8
0
  6
DOTTED
 62
     7
100
AcDbLine
 10
-9.19120063728519
 20
201.7688907615027
 30
0.0
 11
-9.67906860292919
 21
201.2810227958586
 31
0.0
  0
LINE
  5
1C8
330
1F
100
AcDbEntity
  8
0
  6
DOTTED
 62
     7
100
AcDbLine
 10
-16.16693656857319
 20
201.9688907615026
 30
0.0
 11
-15.67906860292919
 21
201.4810227958586
 31
0.0
  0
LINE
  5
1C9
330
1F
100
AcDbEntity
  8
0
  6
DOTTED
 62
     7
100
AcDbLine
 10
-9.87906860292924
 20
201.4810227958586
 30
0.0
 11
-9.39120063728524
 21
201.9688907615026
 31
0.0
  0
LINE
  5
1CA
330
1F
100
AcDbEntity
  8
0
  6
DOTTED
 62
     7
100
AcDbLine
 10
-13.39120063728524
 20
201.7688907615027
 30
0.0
 11
-13.87906860292924
 21
201.2810227958586
 31
0.0
  0
LINE
  5
1CB
330
1F
100
AcDbEntity
  8
0
  6
DOTTED
 62
     7
100
AcDbLine
 10
-11.96693656857337
 20
201.9688907615026
 30
0.0
 11
-11.47906860292937
 21
201.4810227958586
 31
0.0
  0
LINE
  5
1CC
330
1F
100
AcDbEntity
  8
0
  6
DOTTED
 62
     7
100
AcDbLine
 10
-11.85480453421724
 20
202.0810227958587
 30
0.0
 11
-11.96693656857337
 21
201.9688907615026
 31
0.0
  0
LINE
  5
1CD
330
1F
100
AcDbEntity
  8
0
  6
DOTTED
 62
     7
100
AcDbLine
 10
-9.39120063728524
 20
201.9688907615026
 30
0.0
 11
-9.50333267164137
 21
202.0810227958587
 31
0.0
  0
LINE
  5
1CE
330
1F
100
AcDbEntity
  8
0
  6
DOTTED
 62
     7
100
AcDbLine
 10
-16.05480453421728
 20
202.0810227958587
 30
0.0
 11
-16.16693656857319
 21
201.9688907615026
 31
0.0
  0
LINE
  5
1CF
330
1F
100
AcDbEntity
  8
0
  6
DOTTED
 62
     7
100
AcDbLine
 10
-13.70333267164119
 20
202.0810227958587
 30
0.0
 11
-16.05480453421728
 21
202.0810227958587
 31
0.0
  0
LINE
  5
1D0
330
1F
100
AcDbEntity
  8
0
  6
DOTTED
 62
     7
100
AcDbLine
 10
-13.59120063728528
 20
201.9688907615026
 30
0.0
 11
-13.70333267164119
 21
202.0810227958587
 31
0.0
  0
LINE
  5
1D1
330
1F
100
AcDbEntity
  8
0
  6
DOTTED
 62
     7
100
AcDbLine
 10
-9.50333267164137
 20
202.0810227958587
 30
0.0
 11
-11.85480453421724
 21
202.0810227958587
 31
0.0
  0
LINE
  5
1D2
330
1F
100
AcDbEntity
  8
0
  6
DOTTED
 62
     7
100
AcDbLine
 10
-12.16693656857319
 20
201.7688907615027
 30
0.0
 11
-12.27906860292933
 21
201.6567587271467
 31
0.0
  0
LINE
  5
1D3
330
1F
100
AcDbEntity
  8
0
  6
DOTTED
 62
     7
100
AcDbLine
 10
-13.27906860292933
 20
201.6567587271467
 30
0.0
 11
-13.39120063728524
 21
201.7688907615027
 31
0.0
  0
LINE
  5
1D4
330
1F
100
AcDbEntity
  8
0
  6
DOTTED
 62
     7
100
AcDbLine
 10
-16.36693656857324
 20
201.7688907615027
 30
0.0
 11
-16.47906860292937
 21
201.6567587271467
 31
0.0
  0
LINE
  5
1D5
330
1F
100
AcDbEntity
  8
0
  6
DOTTED
 62
     7
100
AcDbLine
 10
-11.47906860292937
 20
201.4810227958586
 30
0.0
 11
-9.87906860292924
 21
201.4810227958586
 31
0.0
  0
LINE
  5
1D6
330
1F
100
AcDbEntity
  8
0
  6
DOTTED
 62
     7
100
AcDbLine
 10
-15.87906860292924
 20
201.2810227958586
 30
0.0
 11
-16.36693656857324
 21
201.7688907615027
 31
0.0
  0
LINE
  5
1D7
330
1F
100
AcDbEntity
  8
0
  6
DOTTED
 62
     7
100
AcDbLine
 10
-15.67906860292919
 20
201.4810227958586
 30
0.0
 11
-14.07906860292928
 21
201.4810227958586
 31
0.0
  0
LINE
  5
1D8
330
1F
100
AcDbEntity
  8
0
  6
DOTTED
 62
     7
100
AcDbLine
 10
-11.67906860292919
 20
201.2810227958586
 30
0.0
 11
-12.16693656857319
 21
201.7688907615027
 31
0.0
  0
LINE
  5
1D9
330
1F
100
AcDbEntity
  8
0
  6
DOTTED
 62
     7
100
AcDbLine
 10
-15.87906860292924
 20
199.9810227958586
 30
0.0
 11
-15.87906860292924
 21
201.2810227958586
 31
0.0
  0
LINE
  5
1DA
330
1F
100
AcDbEntity
  8
0
  6
DOTTED
 62
     7
100
AcDbLine
 10
-9.67906860292919
 20
201.2810227958586
 30
0.0
 11
-9.67906860292919
 21
199.9810227958586
 31
0.0
  0
LINE
  5
1DB
330
1F
100
AcDbEntity
  8
0
  6
DOTTED
 62
     7
100
AcDbLine
 10
-11.67906860292919
 20
199.9810227958586
 30
0.0
 11
-11.67906860292919
 21
201.2810227958586
 31
0.0
  0
LINE
  5
1DC
330
1F
100
AcDbEntity
  8
0
  6
DOTTED
 62
     7
100
AcDbLine
 10
-16.47906860292937
 20
199.6310227958586
 30
0.0
 11
-16.22906860292937
 21
199.6310227958586
 31
0.0
  0
LINE
  5
1DD
330
1F
100
AcDbEntity
  8
0
  6
DOTTED
 62
     7
100
AcDbLine
 10
-16.47906860292937
 20
201.6567587271467
 30
0.0
 11
-16.47906860292937
 21
199.6310227958586
 31
0.0
  0
LINE
  5
1DE
330
1F
100
AcDbEntity
  8
0
  6
CONTINUOUS
 62
     7
100
AcDbLine
 10
-4.25406860292924
 20
199.7810227958586
 30
0.0
 11
-8.35406860292937
 21
199.7810227958586
 31
0.0
  0
LINE
  5
1DF
330
1F
100
AcDbEntity
  8
0
  6
DOTTED
 62
     7
100
AcDbLine
 10
-13.87906860292924
 20
201.2810227958586
 30
0.0
 11
-13.87906860292924
 21
199.9810227958586
 31
0.0
  0
LINE
  5
1E0
330
1F
100
AcDbEntity
  8
0
  6
DOTTED
 62
     7
100
AcDbLine
 10
-14.07906860292928
 20
199.7810227958586
 30
0.0
 11
-15.67906860292919
 21
199.7810227958586
 31
0.0
  0
LINE
  5
1E1
330
1F
100
AcDbEntity
  8
0
  6
DOTTED
 62
     7
100
AcDbLine
 10
-9.87906860292924
 20
199.7810227958586
 30
0.0
 11
-11.47906860292937
 21
199.7810227958586
 31
0.0
  0
LINE
  5
1E2
330
1F
100
AcDbEntity
  8
0
  6
DOTTED
 62
     7
100
AcDbLine
 10
-12.27906860292933
 20
201.6567587271467
 30
0.0
 11
-12.27906860292933
 21
199.6310227958586
 31
0.0
  0
LINE
  5
1E3
330
1F
100
AcDbEntity
  8
0
  6
DOTTED
 62
     7
100
AcDbLine
 10
-12.27906860292933
 20
199.6310227958586
 30
0.0
 11
-12.02906860292933
 21
199.6310227958586
 31
0.0
  0
LINE
  5
1E4
330
1F
100
AcDbEntity
  8
0
  6
DOTTED
 62
     7
100
AcDbLine
 10
-16.22906860292937
 20
199.6310227958586
 30
0.0
 11
-15.87906860292924
 21
199.9810227958586
 31
0.0
  0
LINE
  5
1E5
330
1F
100
AcDbEntity
  8
0
  6
DOTTED
 62
     7
100
AcDbLine
 10
-13.27906860292933
 20
199.6310227958586
 30
0.0
 11
-13.27906860292933
 21
201.6567587271467
 31
0.0
  0
LINE
  5
1E6
330
1F
100
AcDbEntity
  8
0
  6
DOTTED
 62
     7
100
AcDbLine
 10
-12.02906860292933
 20
199.6310227958586
 30
0.0
 11
-11.67906860292919
 21
199.9810227958586
 31
0.0
  0
LINE
  5
1E7
330
1F
100
AcDbEntity
  8
0
  6
DOTTED
 62
     7
100
AcDbLine
 10
-13.52906860292933
 20
199.6310227958586
 30
0.0
 11
-13.27906860292933
 21
199.6310227958586
 31
0.0
  0
LINE
  5
1E8
330
1F
100
AcDbEntity
  8
0
  6
DOTTED
 62
     7
100
AcDbLine
 10
-9.67906860292919
 20
199.9810227958586
 30
0.0
 11
-9.32906860292928
 21
199.6310227958586
 31
0.0
  0
LINE
  5
1E9
330
1F
100
AcDbEntity
  8
0
  6
DOTTED
 62
     7
100
AcDbLine
 10
-13.87906860292924
 20
199.9810227958586
 30
0.0
 11
-13.52906860292933
 21
199.6310227958586
 31
0.0
  0
LINE
  5
1EA
330
1F
100
AcDbEntity
  8
0
  6
DOTTED
 62
     7
100
AcDbLine
 10
-15.67906860292919
 20
199.7810227958586
 30
0.0
 11
-15.97906860292937
 21
199.4810227958586
 31
0.0
  0
LINE
  5
1EB
330
1F
100
AcDbEntity
  8
0
  6
DOTTED
 62
     7
100
AcDbLine
 10
-13.77906860292933
 20
199.4810227958586
 30
0.0
 11
-14.07906860292928
 21
199.7810227958586
 31
0.0
  0
LINE
  5
1EC
330
1F
100
AcDbEntity
  8
0
  6
DOTTED
 62
     7
100
AcDbLine
 10
-14.07906860292928
 20
199.1810227958586
 30
0.0
 11
-13.77906860292933
 21
199.4810227958586
 31
0.0
  0
LINE
  5
1ED
330
1F
100
AcDbEntity
  8
0
  6
DOTTED
 62
     7
100
AcDbLine
 10
-15.97906860292937
 20
199.4810227958586
 30
0.0
 11
-15.67906860292919
 21
199.1810227958586
 31
0.0
  0
LINE
  5
1EE
330
1F
100
AcDbEntity
  8
0
  6
DOTTED
 62
     7
100
AcDbLine
 10
-11.47906860292937
 20
199.7810227958586
 30
0.0
 11
-11.77906860292933
 21
199.4810227958586
 31
0.0
  0
LINE
  5
1EF
330
1F
100
AcDbEntity
  8
0
  6
DOTTED
 62
     7
100
AcDbLine
 10
-9.87906860292924
 20
199.1810227958586
 30
0.0
 11
-9.57906860292928
 21
199.4810227958586
 31
0.0
  0
LINE
  5
1F0
330
1F
100
AcDbEntity
  8
0
  6
DOTTED
 62
     7
100
AcDbLine
 10
-11.77906860292933
 20
199.4810227958586
 30
0.0
 11
-11.47906860292937
 21
199.1810227958586
 31
0.0
  0
LINE
  5
1F1
330
1F
100
AcDbEntity
  8
0
  6
DOTTED
 62
     7
100
AcDbLine
 10
-13.27906860292933
 20
199.3310227958587
 30
0.0
 11
-13.52906860292933
 21
199.3310227958587
 31
0.0
  0
LINE
  5
1F2
330
1F
100
AcDbEntity
  8
0
  6
DOTTED
 62
     7
100
AcDbLine
 10
-9.57906860292928
 20
199.4810227958586
 30
0.0
 11
-9.87906860292924
 21
199.7810227958586
 31
0.0
  0
LINE
  5
1F3
330
1F
100
AcDbEntity
  8
0
  6
DOTTED
 62
     7
100
AcDbLine
 10
-17.72906860292937
 20
199.6310227958586
 30
0.0
 11
-17.47906860292937
 21
199.6310227958586
 31
0.0
  0
LINE
  5
1F4
330
1F
100
AcDbEntity
  8
0
  6
DOTTED
 62
     7
100
AcDbLine
 10
-17.47906860292937
 20
199.6310227958586
 30
0.0
 11
-17.47906860292937
 21
201.6567587271467
 31
0.0
  0
LINE
  5
1F5
330
1F
100
AcDbEntity
  8
0
  6
DOTTED
 62
     7
100
AcDbLine
 10
-17.47906860292937
 20
201.6567587271467
 30
0.0
 11
-17.59120063728528
 21
201.7688907615027
 31
0.0
  0
LINE
  5
1F6
330
1F
100
AcDbEntity
  8
0
  6
DOTTED
 62
     7
100
AcDbLine
 10
-18.07906860292928
 20
199.9810227958586
 30
0.0
 11
-17.72906860292937
 21
199.6310227958586
 31
0.0
  0
LINE
  5
1F7
330
1F
100
AcDbEntity
  8
0
  6
DOTTED
 62
     7
100
AcDbLine
 10
-17.47906860292937
 20
199.3310227958587
 30
0.0
 11
-17.72906860292937
 21
199.3310227958587
 31
0.0
  0
LINE
  5
1F8
330
1F
100
AcDbEntity
  8
0
  6
DOTTED
 62
     7
100
AcDbLine
 10
-17.79120063728533
 20
201.9688907615026
 30
0.0
 11
-17.90333267164124
 21
202.0810227958587
 31
0.0
  0
LINE
  5
1F9
330
1F
100
AcDbEntity
  8
0
  6
DOTTED
 62
     7
100
AcDbLine
 10
-17.59120063728528
 20
201.7688907615027
 30
0.0
 11
-18.07906860292928
 21
201.2810227958586
 31
0.0
  0
LINE
  5
1FA
330
1F
100
AcDbEntity
  8
0
  6
DOTTED
 62
     7
100
AcDbLine
 10
-17.72906860292937
 20
199.3310227958587
 30
0.0
 11
-18.07906860292928
 21
198.9810227958586
 31
0.0
  0
LINE
  5
1FB
330
1F
100
AcDbEntity
  8
0
  6
DOTTED
 62
     7
100
AcDbLine
 10
-13.52906860292933
 20
199.3310227958587
 30
0.0
 11
-13.87906860292924
 21
198.9810227958586
 31
0.0
  0
LINE
  5
1FC
330
1F
100
AcDbEntity
  8
0
  6
CONTINUOUS
 62
     7
100
AcDbLine
 10
-24.25872179274234
 20
190.9810227958586
 30
0.0
 11
-12.85406767409836
 21
190.9810227958586
 31
0.0
  0
LINE
  5
1FD
330
1F
100
AcDbEntity
  8
0
  6
CONTINUOUS
 62
     7
100
AcDbLine
 10
-24.25872179274234
 20
190.9810227958586
 30
0.0
 11
-25.60726075335333
 21
190.9810227958586
 31
0.0
  0
LINE
  5
1FE
330
1F
100
AcDbEntity
  8
0
  6
CONTINUOUS
 62
     7
100
AcDbLine
 10
-7.07280104543429
 20
190.9810227958586
 30
0.0
 11
-3.55406814041339
 21
190.9810227958586
 31
0.0
  0
LINE
  5
1FF
330
1F
100
AcDbEntity
  8
0
  6
CONTINUOUS
 62
     7
100
AcDbLine
 10
-11.35406767409836
 20
190.9810227958586
 30
0.0
 11
-8.13346121721429
 21
190.9810227958586
 31
0.0
  0
LINE
  5
200
330
1F
100
AcDbEntity
  8
0
  6
CONTINUOUS
 62
     7
100
AcDbLine
 10
-8.13346121721429
 20
190.9810227958586
 30
0.0
 11
-7.07280104543429
 21
190.9810227958586
 31
0.0
  0
LINE
  5
201
330
1F
100
AcDbEntity
  8
0
  6
CONTINUOUS
 62
     7
100
AcDbLine
 10
-3.55406814041339
 20
190.9810227958586
 30
0.0
 11
-3.25047830192625
 21
190.9810227958586
 31
0.0
  0
LINE
  5
202
330
1F
100
AcDbEntity
  8
0
  6
CONTINUOUS
 62
     7
100
AcDbLine
 10
-12.85406767409836
 20
190.9810227958586
 30
0.0
 11
-11.35406767409836
 21
190.9810227958586
 31
0.0
  0
LINE
  5
203
330
1F
100
AcDbEntity
  8
0
  6
CONTINUOUS
 62
     7
100
AcDbLine
 10
-27.63992526887137
 20
190.9810227958586
 30
0.0
 11
-25.75406811172525
 21
190.9810227958586
 31
0.0
  0
LINE
  5
204
330
1F
100
AcDbEntity
  8
0
  6
CONTINUOUS
 62
     7
100
AcDbLine
 10
-25.75406811172525
 20
190.9810227958586
 30
0.0
 11
-25.60726075335333
 21
190.9810227958586
 31
0.0
  0
LINE
  5
205
330
1F
100
AcDbEntity
  8
0
  6
CONTINUOUS
 62
     7
100
AcDbLine
 10
39.45593188827479
 20
102.9441966963837
 30
0.0
 11
39.45593188827479
 21
103.3688918636632
 31
0.0
  0
LINE
  5
206
330
1F
100
AcDbEntity
  8
0
  6
CONTINUOUS
 62
     7
100
AcDbLine
 10
39.45593188827479
 20
104.3441966963836
 30
0.0
 11
39.45593188827479
 21
104.6441966963836
 31
0.0
  0
LINE
  5
207
330
1F
100
AcDbEntity
  8
0
  6
CONTINUOUS
 62
     7
100
AcDbLine
 10
39.45593188827479
 20
107.4441966963837
 30
0.0
 11
39.45593188827479
 21
107.6094140876879
 31
0.0
  0
LINE
  5
208
330
1F
100
AcDbEntity
  8
0
  6
CONTINUOUS
 62
     7
100
AcDbLine
 10
39.45593188827479
 20
103.3688918636632
 30
0.0
 11
39.45593188827479
 21
104.3441966963836
 31
0.0
  0
LINE
  5
209
330
1F
100
AcDbEntity
  8
0
  6
CONTINUOUS
 62
     7
100
AcDbLine
 10
39.45593188827479
 20
104.6441966963836
 30
0.0
 11
39.45593188827479
 21
107.4441966963837
 31
0.0
  0
LINE
  5
20A
330
1F
100
AcDbEntity
  8
0
  6
CONTINUOUS
 62
     7
100
AcDbLine
 10
39.45593188827479
 20
109.0441966963836
 30
0.0
 11
39.45593188827479
 21
109.2441966963836
 31
0.0
  0
LINE
  5
20B
330
1F
100
AcDbEntity
  8
0
  6
CONTINUOUS
 62
     7
100
AcDbLine
 10
39.45593188827479
 20
109.2441966963836
 30
0.0
 11
39.45593188827479
 21
110.5244519990082
 31
0.0
  0
LINE
  5
20C
330
1F
100
AcDbEntity
  8
0
  6
CONTINUOUS
 62
     7
100
AcDbLine
 10
39.45593188827479
 20
108.9441966963837
 30
0.0
 11
39.45593188827479
 21
109.0441966963836
 31
0.0
  0
LINE
  5
20D
330
1F
100
AcDbEntity
  8
0
  6
CONTINUOUS
 62
     7
100
AcDbLine
 10
39.45593188827479
 20
107.6094140876879
 30
0.0
 11
39.45593188827479
 21
108.9441966963837
 31
0.0
  0
LINE
  5
20E
330
1F
100
AcDbEntity
  8
0
  6
CONTINUOUS
 62
     7
100
AcDbLine
 10
40.5559318882747
 20
103.2241966963836
 30
0.0
 11
40.5559318882747
 21
103.2441966963837
 31
0.0
  0
LINE
  5
20F
330
1F
100
AcDbEntity
  8
0
  6
CONTINUOUS
 62
     7
100
AcDbLine
 10
40.5559318882747
 20
103.2441966963837
 30
0.0
 11
40.5559318882747
 21
103.5668817623954
 31
0.0
  0
LINE
  5
210
330
1F
100
AcDbEntity
  8
0
  6
CONTINUOUS
 62
     7
100
AcDbLine
 10
40.5559318882747
 20
104.682906373803
 30
0.0
 11
40.5559318882747
 21
104.872623456529
 31
0.0
  0
LINE
  5
211
330
1F
100
AcDbEntity
  8
0
  6
CONTINUOUS
 62
     7
100
AcDbLine
 10
40.5559318882747
 20
103.5668817623954
 30
0.0
 11
40.5559318882747
 21
103.668891863663
 31
0.0
  0
LINE
  5
212
330
1F
100
AcDbEntity
  8
0
  6
CONTINUOUS
 62
     7
100
AcDbLine
 10
40.5559318882747
 20
103.668891863663
 30
0.0
 11
40.5559318882747
 21
104.682906373803
 31
0.0
  0
LINE
  5
213
330
1F
100
AcDbEntity
  8
0
  6
CONTINUOUS
 62
     7
100
AcDbLine
 10
55.35593188827465
 20
109.0152641436483
 30
0.0
 11
55.35593188827465
 21
108.2441966963836
 31
0.0
  0
LINE
  5
214
330
1F
100
AcDbEntity
  8
0
  6
CONTINUOUS
 62
     7
100
AcDbLine
 10
55.35593188827465
 20
108.2441966963836
 30
0.0
 11
55.35593188827465
 21
106.2868370189021
 31
0.0
  0
LINE
  5
215
330
1F
100
AcDbEntity
  8
0
  6
CONTINUOUS
 62
     7
100
AcDbLine
 10
56.45593188827479
 20
102.9441966963837
 30
0.0
 11
56.45593188827479
 21
103.3688918636632
 31
0.0
  0
LINE
  5
216
330
1F
100
AcDbEntity
  8
0
  6
CONTINUOUS
 62
     7
100
AcDbLine
 10
56.45593188827479
 20
104.6441966963836
 30
0.0
 11
56.45593188827479
 21
104.3441966963836
 31
0.0
  0
LINE
  5
217
330
1F
100
AcDbEntity
  8
0
  6
CONTINUOUS
 62
     7
100
AcDbLine
 10
56.45593188827479
 20
104.3441966963836
 30
0.0
 11
56.45593188827479
 21
103.3688918636632
 31
0.0
  0
LINE
  5
218
330
1F
100
AcDbEntity
  8
0
  6
CONTINUOUS
 62
     7
100
AcDbLine
 10
56.45593188827479
 20
108.9441966963837
 30
0.0
 11
56.45593188827479
 21
107.4441966963837
 31
0.0
  0
LINE
  5
219
330
1F
100
AcDbEntity
  8
0
  6
CONTINUOUS
 62
     7
100
AcDbLine
 10
56.45593188827479
 20
110.5244519990082
 30
0.0
 11
56.45593188827479
 21
108.9441966963837
 31
0.0
  0
LINE
  5
21A
330
1F
100
AcDbEntity
  8
0
  6
CONTINUOUS
 62
     7
100
AcDbLine
 10
56.45593188827479
 20
107.4441966963837
 30
0.0
 11
56.45593188827479
 21
104.6441966963836
 31
0.0
  0
LINE
  5
21B
330
1F
100
AcDbEntity
  8
0
  6
CONTINUOUS
 62
     7
100
AcDbLine
 10
41.35593188827465
 20
103.5291206490119
 30
0.0
 11
41.35593188827465
 21
103.2462779365374
 31
0.0
  0
LINE
  5
21C
330
1F
100
AcDbEntity
  8
0
  6
CONTINUOUS
 62
     7
100
AcDbLine
 10
43.75593188827475
 20
103.5291206490119
 30
0.0
 11
43.75593188827475
 21
103.2462779365374
 31
0.0
  0
LINE
  5
21D
330
1F
100
AcDbEntity
  8
0
  6
CONTINUOUS
 62
     7
100
AcDbLine
 10
54.5559318882747
 20
107.630339979894
 30
0.0
 11
54.5559318882747
 21
107.3474972674194
 31
0.0
  0
LINE
  5
21E
330
1F
100
AcDbEntity
  8
0
  6
CONTINUOUS
 62
     7
100
AcDbLine
 10
52.15593188827461
 20
107.630339979894
 30
0.0
 11
52.15593188827461
 21
107.3474972674194
 31
0.0
  0
LINE
  5
21F
330
1F
100
AcDbEntity
  8
0
  6
CONTINUOUS
 62
     7
100
AcDbLine
 10
53.25593188827475
 20
105.509019559597
 30
0.0
 11
54.37308917580072
 21
105.509019559597
 31
0.0
  0
LINE
  5
220
330
1F
100
AcDbEntity
  8
0
  6
CONTINUOUS
 62
     7
100
AcDbLine
 10
51.15593188827461
 20
108.8324214311738
 30
0.0
 11
51.15593188827461
 21
107.9253146499872
 31
0.0
  0
LINE
  5
221
330
1F
100
AcDbEntity
  8
0
  6
CONTINUOUS
 62
     7
100
AcDbLine
 10
51.15593188827461
 20
107.7838932937499
 30
0.0
 11
51.15593188827461
 21
107.4889185469193
 31
0.0
  0
LINE
  5
222
330
1F
100
AcDbEntity
  8
0
  6
CONTINUOUS
 62
     7
100
AcDbLine
 10
51.15593188827461
 20
107.4889185469193
 30
0.0
 11
51.15593188827461
 21
106.9939438000887
 31
0.0
  0
LINE
  5
223
330
1F
100
AcDbEntity
  8
0
  6
CONTINUOUS
 62
     7
100
AcDbLine
 10
51.20593188827479
 20
104.9433341346477
 30
0.0
 11
51.20593188827479
 21
104.5897807440545
 31
0.0
  0
LINE
  5
224
330
1F
100
AcDbEntity
  8
0
  6
CONTINUOUS
 62
     7
100
AcDbLine
 10
54.37308917580072
 20
102.1027749755456
 30
0.0
 11
54.37308917580072
 21
105.509019559597
 31
0.0
  0
LINE
  5
225
330
1F
100
AcDbEntity
  8
0
  6
CONTINUOUS
 62
     7
100
AcDbLine
 10
51.15593188827461
 20
107.7838932937499
 30
0.0
 11
51.15593188827461
 21
107.9253146499872
 31
0.0
  0
LINE
  5
226
330
1F
100
AcDbEntity
  8
0
  6
CONTINUOUS
 62
     7
100
AcDbLine
 10
50.20593188827479
 20
104.3776487096984
 30
0.0
 11
50.20593188827479
 21
97.22226619235106
 31
0.0
  0
LINE
  5
227
330
1F
100
AcDbEntity
  8
0
  6
CONTINUOUS
 62
     7
100
AcDbLine
 10
54.37308917580072
 20
102.1027749755456
 30
0.0
 11
54.37308917580072
 21
102.0441963317828
 31
0.0
  0
LINE
  5
228
330
1F
100
AcDbEntity
  8
0
  6
CONTINUOUS
 62
     7
100
AcDbLine
 10
50.20593188827479
 20
102.0441963317828
 30
0.0
 11
54.37308917580072
 21
102.0441963317828
 31
0.0
  0
LINE
  5
229
330
1F
100
AcDbEntity
  8
0
  6
CONTINUOUS
 62
     7
100
AcDbLine
 10
51.35593188827465
 20
109.1152641436484
 30
0.0
 11
55.21451053203782
 21
109.1152641436484
 31
0.0
  0
LINE
  5
22A
330
1F
100
AcDbEntity
  8
0
  6
CONTINUOUS
 62
     7
100
AcDbLine
 10
51.35593188827465
 20
109.1152641436484
 30
0.0
 11
51.35593188827465
 21
107.6303399031566
 31
0.0
  0
LINE
  5
22B
330
1F
100
AcDbEntity
  8
0
  6
CONTINUOUS
 62
     7
100
AcDbLine
 10
44.75593188827475
 20
102.1027749755456
 30
0.0
 11
45.70593188827479
 21
102.1027749755456
 31
0.0
  0
LINE
  5
22C
330
1F
100
AcDbEntity
  8
0
  6
CONTINUOUS
 62
     7
100
AcDbLine
 10
45.70593188827479
 20
104.3776487096984
 30
0.0
 11
45.70593188827479
 21
97.22226619235106
 31
0.0
  0
LINE
  5
22D
330
1F
100
AcDbEntity
  8
0
  6
CONTINUOUS
 62
     7
100
AcDbLine
 10
44.75593188827475
 20
102.1027749755456
 30
0.0
 11
44.75593188827475
 21
102.0441963317828
 31
0.0
  0
LINE
  5
22E
330
1F
100
AcDbEntity
  8
0
  6
CONTINUOUS
 62
     7
100
AcDbLine
 10
44.5559318882747
 20
102.0441963317828
 30
0.0
 11
44.5559318882747
 21
103.5251711352031
 31
0.0
  0
LINE
  5
22F
330
1F
100
AcDbEntity
  8
0
  6
CONTINUOUS
 62
     7
100
AcDbLine
 10
44.5559318882747
 20
102.0441963317828
 30
0.0
 11
44.75593188827475
 21
102.0441963317828
 31
0.0
  0
LINE
  5
230
330
1F
100
AcDbEntity
  8
0
  6
CONTINUOUS
 62
     7
100
AcDbLine
 10
44.75593188827475
 20
102.0441963317828
 30
0.0
 11
45.70593188827479
 21
102.0441963317828
 31
0.0
  0
LINE
  5
231
330
1F
100
AcDbEntity
  8
0
  6
CONTINUOUS
 62
     7
100
AcDbLine
 10
44.5559318882747
 20
102.0441963317828
 30
0.0
 11
40.69735324451176
 21
102.0441963317828
 31
0.0
  0
LINE
  5
232
330
1F
100
AcDbEntity
  8
0
  6
CONTINUOUS
 62
     7
100
AcDbLine
 10
44.75593188827475
 20
102.1027749755456
 30
0.0
 11
44.75593188827475
 21
102.8927244692068
 31
0.0
  0
LINE
  5
233
330
1F
100
AcDbEntity
  8
0
  6
CONTINUOUS
 62
     7
100
AcDbLine
 10
42.5559318882747
 20
104.3776487864359
 30
0.0
 11
41.53877460074978
 21
104.3776487096985
 31
0.0
  0
LINE
  5
234
330
1F
100
AcDbEntity
  8
0
  6
CONTINUOUS
 62
     7
100
AcDbLine
 10
54.37308917580072
 20
102.0441963317828
 30
0.0
 11
55.85908248890883
 21
102.0441963317828
 31
0.0
  0
LINE
  5
235
330
1F
100
AcDbEntity
  8
0
  6
CONTINUOUS
 62
     7
100
AcDbLine
 10
56.0559318882747
 20
109.8223709248349
 30
0.0
 11
56.0559318882747
 21
110.1052135068783
 31
0.0
  0
LINE
  5
236
330
1F
100
AcDbEntity
  8
0
  6
CONTINUOUS
 62
     7
100
AcDbLine
 10
56.0559318882747
 20
102.3270390442575
 30
0.0
 11
56.0559318882747
 21
109.8223709248349
 31
0.0
  0
LINE
  5
237
330
1F
100
AcDbEntity
  8
0
  6
CONTINUOUS
 62
     7
100
AcDbLine
 10
55.35593188827465
 20
109.0152641436483
 30
0.0
 11
55.35593188827465
 21
108.2441966963836
 31
0.0
  0
LINE
  5
238
330
1F
100
AcDbEntity
  8
0
  6
CONTINUOUS
 62
     7
100
AcDbLine
 10
55.35593188827465
 20
108.2441966963836
 30
0.0
 11
55.35593188827465
 21
106.2868370189021
 31
0.0
  0
LINE
  5
239
330
1F
100
AcDbEntity
  8
0
  6
CONTINUOUS
 62
     7
100
AcDbLine
 10
55.35593188827465
 20
109.0152641436483
 30
0.0
 11
56.00050384514566
 21
109.9268265469809
 31
0.0
  0
LINE
  5
23A
330
1F
100
AcDbEntity
  8
0
  6
CONTINUOUS
 62
     7
100
AcDbLine
 10
53.25593188827475
 20
106.2868370189021
 30
0.0
 11
55.35593188827465
 21
106.2868370189021
 31
0.0
  0
LINE
  5
23B
330
1F
100
AcDbEntity
  8
0
  6
CONTINUOUS
 62
     7
100
AcDbLine
 10
53.25593188827475
 20
106.0039943064276
 30
0.0
 11
55.15593188827461
 21
106.0039943064276
 31
0.0
  0
LINE
  5
23C
330
1F
100
AcDbEntity
  8
0
  6
CONTINUOUS
 62
     7
100
AcDbLine
 10
54.51451053203778
 20
105.5504409158342
 30
0.0
 11
55.15593188827461
 21
106.0039943064276
 31
0.0
  0
LINE
  5
23D
330
1F
100
AcDbEntity
  8
0
  6
CONTINUOUS
 62
     7
100
AcDbLine
 10
54.51451053203778
 20
102.1441963317827
 30
0.0
 11
56.00050384514566
 21
102.1441963317827
 31
0.0
  0
LINE
  5
23E
330
1F
100
AcDbEntity
  8
0
  6
CONTINUOUS
 62
     7
100
AcDbLine
 10
55.21451053203782
 20
109.1152641436484
 30
0.0
 11
55.85908248890883
 21
110.0268265469808
 31
0.0
  0
LINE
  5
23F
330
1F
100
AcDbEntity
  8
0
  6
CONTINUOUS
 62
     7
100
AcDbLine
 10
55.65593188827461
 20
110.1052136373095
 30
0.0
 11
40.25593188827475
 21
110.1052136373095
 31
0.0
  0
LINE
  5
240
330
1F
100
AcDbEntity
  8
0
  6
CONTINUOUS
 62
     7
100
AcDbLine
 10
40.25593188827475
 20
110.1052136373095
 30
0.0
 11
40.25593188827475
 21
110.3880562193531
 31
0.0
  0
LINE
  5
241
330
1F
100
AcDbEntity
  8
0
  6
CONTINUOUS
 62
     7
100
AcDbLine
 10
55.65593188827461
 20
110.3880562193531
 30
0.0
 11
40.25593188827475
 21
110.3880562193531
 31
0.0
  0
LINE
  5
242
330
1F
100
AcDbEntity
  8
0
  6
CONTINUOUS
 62
     7
100
AcDbLine
 10
55.65593188827461
 20
110.1052136373095
 30
0.0
 11
55.65593188827461
 21
110.3880562193531
 31
0.0
  0
LINE
  5
243
330
1F
100
AcDbEntity
  8
0
  6
CONTINUOUS
 62
     7
100
AcDbLine
 10
42.65593188827461
 20
104.3776487096985
 30
0.0
 11
42.5559318882747
 21
104.3776487864359
 31
0.0
  0
LINE
  5
244
330
1F
100
AcDbEntity
  8
0
  6
CONTINUOUS
 62
     7
100
AcDbLine
 10
40.05278128764076
 20
102.0441963317828
 30
0.0
 11
40.69735324451176
 21
102.0441963317828
 31
0.0
  0
LINE
  5
245
330
1F
100
AcDbEntity
  8
0
  6
CONTINUOUS
 62
     7
100
AcDbLine
 10
40.5559318882747
 20
102.1441963317827
 30
0.0
 11
40.5559318882747
 21
103.2241966963836
 31
0.0
  0
LINE
  5
246
330
1F
100
AcDbEntity
  8
0
  6
CONTINUOUS
 62
     7
100
AcDbLine
 10
39.9113599314037
 20
102.1441963317827
 30
0.0
 11
40.5559318882747
 21
102.1441963317827
 31
0.0
  0
LINE
  5
247
330
1F
100
AcDbEntity
  8
0
  6
CONTINUOUS
 62
     7
100
AcDbLine
 10
40.5559318882747
 20
103.2241966963836
 30
0.0
 11
40.5559318882747
 21
103.2441966963837
 31
0.0
  0
LINE
  5
248
330
1F
100
AcDbEntity
  8
0
  6
CONTINUOUS
 62
     7
100
AcDbLine
 10
40.5559318882747
 20
103.2441966963837
 30
0.0
 11
40.5559318882747
 21
103.5668817623954
 31
0.0
  0
LINE
  5
249
330
1F
100
AcDbEntity
  8
0
  6
CONTINUOUS
 62
     7
100
AcDbLine
 10
39.85593188827465
 20
109.8223709248349
 30
0.0
 11
39.85593188827465
 21
102.3270390442575
 31
0.0
  0
LINE
  5
24A
330
1F
100
AcDbEntity
  8
0
  6
CONTINUOUS
 62
     7
100
AcDbLine
 10
39.85593188827465
 20
109.8223709248349
 30
0.0
 11
39.85593188827465
 21
110.1052135068784
 31
0.0
  0
LINE
  5
24B
330
1F
100
AcDbEntity
  8
0
  6
CONTINUOUS
 62
     7
100
AcDbLine
 10
41.53877460074978
 20
107.7838932937499
 30
0.0
 11
41.53877460074978
 21
104.3776487096985
 31
0.0
  0
LINE
  5
24C
330
1F
100
AcDbEntity
  8
0
  6
CONTINUOUS
 62
     7
100
AcDbLine
 10
40.5559318882747
 20
104.682906373803
 30
0.0
 11
40.5559318882747
 21
104.872623456529
 31
0.0
  0
LINE
  5
24D
330
1F
100
AcDbEntity
  8
0
  6
CONTINUOUS
 62
     7
100
AcDbLine
 10
40.5559318882747
 20
103.5668817623954
 30
0.0
 11
40.5559318882747
 21
103.668891863663
 31
0.0
  0
LINE
  5
24E
330
1F
100
AcDbEntity
  8
0
  6
CONTINUOUS
 62
     7
100
AcDbLine
 10
40.5559318882747
 20
103.668891863663
 30
0.0
 11
40.5559318882747
 21
104.682906373803
 31
0.0
  0
LINE
  5
24F
330
1F
100
AcDbEntity
  8
0
  6
CONTINUOUS
 62
     7
100
AcDbLine
 10
41.39735324451181
 20
107.8253146499872
 30
0.0
 11
39.9113599314037
 21
109.9268265469809
 31
0.0
  0
LINE
  5
250
330
1F
100
AcDbEntity
  8
0
  6
CONTINUOUS
 62
     7
100
AcDbLine
 10
44.70593188827479
 20
104.9433341346477
 30
0.0
 11
44.70593188827479
 21
104.5897807440545
 31
0.0
  0
LINE
  5
251
330
1F
100
AcDbEntity
  8
0
  6
CONTINUOUS
 62
     7
100
AcDbLine
 10
41.39735324451181
 20
104.4190700659358
 30
0.0
 11
40.75593188827475
 21
104.872623456529
 31
0.0
  0
LINE
  5
252
330
1F
100
AcDbEntity
  8
0
  6
CONTINUOUS
 62
     7
100
AcDbLine
 10
40.75593188827475
 20
104.872623456529
 30
0.0
 11
40.5559318882747
 21
104.872623456529
 31
0.0
  0
LINE
  5
253
330
1F
100
AcDbEntity
  8
0
  6
CONTINUOUS
 62
     7
100
AcDbLine
 10
51.15593188827461
 20
107.7838932937499
 30
0.0
 11
41.53877460074978
 21
107.7838932937499
 31
0.0
  0
LINE
  5
254
330
1F
100
AcDbEntity
  8
0
  6
CONTINUOUS
 62
     7
100
AcDbLine
 10
50.20593188827479
 20
102.0441963317828
 30
0.0
 11
54.37308917580072
 21
102.0441963317828
 31
0.0
  0
LINE
  5
255
330
1F
100
AcDbEntity
  8
0
  6
CONTINUOUS
 62
     7
100
AcDbLine
 10
39.45593188827479
 20
102.9441966963837
 30
0.0
 11
39.45593188827479
 21
102.1906433057905
 31
0.0
  0
LINE
  5
256
330
1F
100
AcDbEntity
  8
0
  6
CONTINUOUS
 62
     7
100
AcDbLine
 10
39.45593188827479
 20
102.1906433057905
 30
0.0
 11
39.88917359737775
 21
102.1906433057905
 31
0.0
  0
LINE
  5
257
330
1F
100
AcDbEntity
  8
0
  6
CONTINUOUS
 62
     7
100
AcDbLine
 10
44.5559318882747
 20
102.0441963317828
 30
0.0
 11
44.75593188827475
 21
102.0441963317828
 31
0.0
  0
LINE
  5
258
330
1F
100
AcDbEntity
  8
0
  6
CONTINUOUS
 62
     7
100
AcDbLine
 10
44.75593188827475
 20
102.0441963317828
 30
0.0
 11
45.70593188827479
 21
102.0441963317828
 31
0.0
  0
LINE
  5
259
330
1F
100
AcDbEntity
  8
0
  6
CONTINUOUS
 62
     7
100
AcDbLine
 10
44.5559318882747
 20
102.0441963317828
 30
0.0
 11
40.69735324451176
 21
102.0441963317828
 31
0.0
  0
LINE
  5
25A
330
1F
100
AcDbEntity
  8
0
  6
CONTINUOUS
 62
     7
100
AcDbLine
 10
56.45593188827479
 20
102.1906433057905
 30
0.0
 11
56.45593188827479
 21
102.0441966963838
 31
0.0
  0
LINE
  5
25B
330
1F
100
AcDbEntity
  8
0
  6
CONTINUOUS
 62
     7
100
AcDbLine
 10
56.02269017917161
 20
102.1906433057905
 30
0.0
 11
56.45593188827479
 21
102.1906433057905
 31
0.0
  0
LINE
  5
25C
330
1F
100
AcDbEntity
  8
0
  6
CONTINUOUS
 62
     7
100
AcDbLine
 10
55.85908248890883
 20
102.0441963317828
 30
0.0
 11
56.45593188827479
 21
102.0441966963838
 31
0.0
  0
LINE
  5
25D
330
1F
100
AcDbEntity
  8
0
  6
CONTINUOUS
 62
     7
100
AcDbLine
 10
54.37308917580072
 20
102.0441963317828
 30
0.0
 11
55.85908248890883
 21
102.0441963317828
 31
0.0
  0
LINE
  5
25E
330
1F
100
AcDbEntity
  8
0
  6
CONTINUOUS
 62
     7
100
AcDbLine
 10
56.45593188827479
 20
102.9441966963837
 30
0.0
 11
56.45593188827479
 21
102.1906433057905
 31
0.0
  0
LINE
  5
25F
330
1F
100
AcDbEntity
  8
0
  6
CONTINUOUS
 62
     7
100
AcDbLine
 10
56.45593188827479
 20
110.5244519990082
 30
0.0
 11
39.45593188827479
 21
110.5244519990082
 31
0.0
  0
LINE
  5
260
330
1F
100
AcDbEntity
  8
0
  6
CONTINUOUS
 62
     7
100
AcDbLine
 10
40.25593188827475
 20
110.1052136373095
 30
0.0
 11
40.25593188827475
 21
110.3880562193531
 31
0.0
  0
LINE
  5
261
330
1F
100
AcDbEntity
  8
0
  6
CONTINUOUS
 62
     7
100
AcDbLine
 10
56.45593188827479
 20
102.9441966963837
 30
0.0
 11
56.45593188827479
 21
103.3688918636632
 31
0.0
  0
LINE
  5
262
330
1F
100
AcDbEntity
  8
0
  6
CONTINUOUS
 62
     7
100
AcDbLine
 10
55.65593188827461
 20
110.1052136373095
 30
0.0
 11
55.65593188827461
 21
110.3880562193531
 31
0.0
  0
LINE
  5
263
330
1F
100
AcDbEntity
  8
0
  6
CONTINUOUS
 62
     7
100
AcDbLine
 10
56.45593188827479
 20
104.6441966963836
 30
0.0
 11
56.45593188827479
 21
104.3441966963836
 31
0.0
  0
LINE
  5
264
330
1F
100
AcDbEntity
  8
0
  6
CONTINUOUS
 62
     7
100
AcDbLine
 10
56.45593188827479
 20
104.3441966963836
 30
0.0
 11
56.45593188827479
 21
103.3688918636632
 31
0.0
  0
LINE
  5
265
330
1F
100
AcDbEntity
  8
0
  6
CONTINUOUS
 62
     7
100
AcDbLine
 10
56.45593188827479
 20
108.9441966963837
 30
0.0
 11
56.45593188827479
 21
107.4441966963837
 31
0.0
  0
LINE
  5
266
330
1F
100
AcDbEntity
  8
0
  6
CONTINUOUS
 62
     7
100
AcDbLine
 10
56.45593188827479
 20
110.5244519990082
 30
0.0
 11
56.45593188827479
 21
108.9441966963837
 31
0.0
  0
LINE
  5
267
330
1F
100
AcDbEntity
  8
0
  6
CONTINUOUS
 62
     7
100
AcDbLine
 10
56.45593188827479
 20
107.4441966963837
 30
0.0
 11
56.45593188827479
 21
104.6441966963836
 31
0.0
  0
LINE
  5
268
330
1F
100
AcDbEntity
  8
0
  6
CONTINUOUS
 62
     7
100
AcDbLine
 10
39.45593188827479
 20
102.0441966963838
 30
0.0
 11
40.05278128764076
 21
102.0441963317828
 31
0.0
  0
LINE
  5
269
330
1F
100
AcDbEntity
  8
0
  6
CONTINUOUS
 62
     7
100
AcDbLine
 10
39.45593188827479
 20
102.1906433057905
 30
0.0
 11
39.45593188827479
 21
102.0441966963838
 31
0.0
  0
LINE
  5
26A
330
1F
100
AcDbEntity
  8
0
  6
CONTINUOUS
 62
     7
100
AcDbLine
 10
39.45593188827479
 20
102.9441966963837
 30
0.0
 11
39.45593188827479
 21
103.3688918636632
 31
0.0
  0
LINE
  5
26B
330
1F
100
AcDbEntity
  8
0
  6
CONTINUOUS
 62
     7
100
AcDbLine
 10
39.45593188827479
 20
104.3441966963836
 30
0.0
 11
39.45593188827479
 21
104.6441966963836
 31
0.0
  0
LINE
  5
26C
330
1F
100
AcDbEntity
  8
0
  6
CONTINUOUS
 62
     7
100
AcDbLine
 10
39.45593188827479
 20
107.4441966963837
 30
0.0
 11
39.45593188827479
 21
107.6094140876879
 31
0.0
  0
LINE
  5
26D
330
1F
100
AcDbEntity
  8
0
  6
CONTINUOUS
 62
     7
100
AcDbLine
 10
39.45593188827479
 20
103.3688918636632
 30
0.0
 11
39.45593188827479
 21
104.3441966963836
 31
0.0
  0
LINE
  5
26E
330
1F
100
AcDbEntity
  8
0
  6
CONTINUOUS
 62
     7
100
AcDbLine
 10
39.45593188827479
 20
104.6441966963836
 30
0.0
 11
39.45593188827479
 21
107.4441966963837
 31
0.0
  0
LINE
  5
26F
330
1F
100
AcDbEntity
  8
0
  6
CONTINUOUS
 62
     7
100
AcDbLine
 10
39.45593188827479
 20
109.0441966963836
 30
0.0
 11
39.45593188827479
 21
109.2441966963836
 31
0.0
  0
LINE
  5
270
330
1F
100
AcDbEntity
  8
0
  6
CONTINUOUS
 62
     7
100
AcDbLine
 10
39.45593188827479
 20
109.2441966963836
 30
0.0
 11
39.45593188827479
 21
110.5244519990082
 31
0.0
  0
LINE
  5
271
330
1F
100
AcDbEntity
  8
0
  6
CONTINUOUS
 62
     7
100
AcDbLine
 10
39.45593188827479
 20
108.9441966963837
 30
0.0
 11
39.45593188827479
 21
109.0441966963836
 31
0.0
  0
LINE
  5
272
330
1F
100
AcDbEntity
  8
0
  6
CONTINUOUS
 62
     7
100
AcDbLine
 10
39.45593188827479
 20
107.6094140876879
 30
0.0
 11
39.45593188827479
 21
108.9441966963837
 31
0.0
  0
LINE
  5
273
330
1F
100
AcDbEntity
  8
0
  6
CONTINUOUS
 62
     7
100
AcDbLine
 10
40.05278128764076
 20
102.0441963317828
 30
0.0
 11
40.69735324451176
 21
102.0441963317828
 31
0.0
  0
LINE
  5
274
330
1F
100
AcDbEntity
  8
0
  6
CONTINUOUS
 62
     7
100
AcDbLine
 10
-83.04406811172521
 20
143.6441963317826
 30
0.0
 11
-83.04406811172521
 21
143.0941963317812
 31
0.0
  0
LINE
  5
275
330
1F
100
AcDbEntity
  8
0
  6
CONTINUOUS
 62
     7
100
AcDbLine
 10
-83.04406811172521
 20
143.0941963317812
 30
0.0
 11
-83.04406811172521
 21
142.7441963317813
 31
0.0
  0
LINE
  5
276
330
1F
100
AcDbEntity
  8
0
  6
CONTINUOUS
 62
     7
100
AcDbLine
 10
-83.04406811172521
 20
141.0441963317826
 30
0.0
 11
-83.04406811172521
 21
140.9441963317827
 31
0.0
  0
LINE
  5
277
330
1F
100
AcDbEntity
  8
0
  6
CONTINUOUS
 62
     7
100
AcDbLine
 10
-83.04406811172521
 20
107.3441963317826
 30
0.0
 11
-83.04406811172521
 21
107.5441963317825
 31
0.0
  0
LINE
  5
278
330
1F
100
AcDbEntity
  8
0
  6
CONTINUOUS
 62
     7
100
AcDbLine
 10
-83.04406811172521
 20
108.9441963317825
 30
0.0
 11
-83.04406811172521
 21
107.5441963317825
 31
0.0
  0
LINE
  5
279
330
1F
100
AcDbEntity
  8
0
  6
CONTINUOUS
 62
     7
100
AcDbLine
 10
-83.04406811172521
 20
104.6441963317826
 30
0.0
 11
-83.04406811172521
 21
107.3441963317826
 31
0.0
  0
LINE
  5
27A
330
1F
100
AcDbEntity
  8
0
  6
CONTINUOUS
 62
     7
100
AcDbLine
 10
-83.04406811172521
 20
119.0941963317826
 30
0.0
 11
-83.04406811172521
 21
118.7441963317825
 31
0.0
  0
LINE
  5
27B
330
1F
100
AcDbEntity
  8
0
  6
CONTINUOUS
 62
     7
100
AcDbLine
 10
-83.04406811172521
 20
123.7441963317825
 30
0.0
 11
-83.04406811172521
 21
123.3941963317825
 31
0.0
  0
LINE
  5
27C
330
1F
100
AcDbEntity
  8
0
  6
CONTINUOUS
 62
     7
100
AcDbLine
 10
-83.04406811172521
 20
123.3941963317825
 30
0.0
 11
-83.04406811172521
 21
119.0941963317826
 31
0.0
  0
LINE
  5
27D
330
1F
100
AcDbEntity
  8
0
  6
CONTINUOUS
 62
     7
100
AcDbLine
 10
-83.04406811172521
 20
110.6629292654916
 30
0.0
 11
-83.04406811172521
 21
108.9441963317825
 31
0.0
  0
LINE
  5
27E
330
1F
100
AcDbEntity
  8
0
  6
CONTINUOUS
 62
     7
100
AcDbLine
 10
-83.04406811172521
 20
111.7235894372714
 30
0.0
 11
-83.04406811172521
 21
110.6629292654916
 31
0.0
  0
LINE
  5
27F
330
1F
100
AcDbEntity
  8
0
  6
CONTINUOUS
 62
     7
100
AcDbLine
 10
-83.04406811172521
 20
139.5441963317826
 30
0.0
 11
-83.04406811172521
 21
129.1441963317826
 31
0.0
  0
LINE
  5
280
330
1F
100
AcDbEntity
  8
0
  6
CONTINUOUS
 62
     7
100
AcDbLine
 10
-83.04406811172521
 20
129.1441963317826
 30
0.0
 11
-83.04406811172521
 21
123.7441963317825
 31
0.0
  0
LINE
  5
281
330
1F
100
AcDbEntity
  8
0
  6
CONTINUOUS
 62
     7
100
AcDbLine
 10
-83.04406811172521
 20
118.7441963317825
 30
0.0
 11
-83.04406811172521
 21
111.7235894372714
 31
0.0
  0
LINE
  5
282
330
1F
100
AcDbEntity
  8
0
  6
CONTINUOUS
 62
     7
100
AcDbLine
 10
-83.04406811172521
 20
142.7441963317813
 30
0.0
 11
-83.04406811172521
 21
141.0441963317826
 31
0.0
  0
LINE
  5
283
330
1F
100
AcDbEntity
  8
0
  6
CONTINUOUS
 62
     7
100
AcDbLine
 10
-83.04406811172521
 20
140.9441963317827
 30
0.0
 11
-83.04406811172521
 21
139.5441963317826
 31
0.0
  0
LINE
  5
284
330
1F
100
AcDbEntity
  8
0
  6
CONTINUOUS
 62
     7
100
AcDbLine
 10
-66.04406811172521
 20
142.7441963317813
 30
0.0
 11
-66.04406811172521
 21
141.0441963317826
 31
0.0
  0
LINE
  5
285
330
1F
100
AcDbEntity
  8
0
  6
CONTINUOUS
 62
     7
100
AcDbLine
 10
-66.04406811172521
 20
143.0941963317812
 30
0.0
 11
-66.04406811172521
 21
142.7441963317813
 31
0.0
  0
LINE
  5
286
330
1F
100
AcDbEntity
  8
0
  6
CONTINUOUS
 62
     7
100
AcDbLine
 10
-66.04406811172521
 20
111.7235894372719
 30
0.0
 11
-66.04406811172521
 21
110.6629292654918
 31
0.0
  0
LINE
  5
287
330
1F
100
AcDbEntity
  8
0
  6
CONTINUOUS
 62
     7
100
AcDbLine
 10
-66.04406811172521
 20
108.9441963317825
 30
0.0
 11
-66.04406811172521
 21
107.5441963317825
 31
0.0
  0
LINE
  5
288
330
1F
100
AcDbEntity
  8
0
  6
CONTINUOUS
 62
     7
100
AcDbLine
 10
-66.04406811172521
 20
110.6629292654918
 30
0.0
 11
-66.04406811172521
 21
108.9441963317825
 31
0.0
  0
LINE
  5
289
330
1F
100
AcDbEntity
  8
0
  6
CONTINUOUS
 62
     7
100
AcDbLine
 10
-66.04406811172521
 20
139.5441963317826
 30
0.0
 11
-66.04406811172521
 21
129.1441963317826
 31
0.0
  0
LINE
  5
28A
330
1F
100
AcDbEntity
  8
0
  6
CONTINUOUS
 62
     7
100
AcDbLine
 10
-66.04406811172521
 20
143.6441963317826
 30
0.0
 11
-66.04406811172521
 21
143.0941963317812
 31
0.0
  0
LINE
  5
28B
330
1F
100
AcDbEntity
  8
0
  6
CONTINUOUS
 62
     7
100
AcDbLine
 10
-66.04406811172521
 20
141.0441963317826
 30
0.0
 11
-66.04406811172521
 21
140.9441963317827
 31
0.0
  0
LINE
  5
28C
330
1F
100
AcDbEntity
  8
0
  6
CONTINUOUS
 62
     7
100
AcDbLine
 10
-66.04406811172521
 20
119.0941963317826
 30
0.0
 11
-66.04406811172521
 21
118.7441963317825
 31
0.0
  0
LINE
  5
28D
330
1F
100
AcDbEntity
  8
0
  6
CONTINUOUS
 62
     7
100
AcDbLine
 10
-66.04406811172521
 20
123.7441963317825
 30
0.0
 11
-66.04406811172521
 21
123.3941963317825
 31
0.0
  0
LINE
  5
28E
330
1F
100
AcDbEntity
  8
0
  6
CONTINUOUS
 62
     7
100
AcDbLine
 10
-66.04406811172521
 20
123.3941963317825
 30
0.0
 11
-66.04406811172521
 21
119.0941963317826
 31
0.0
  0
LINE
  5
28F
330
1F
100
AcDbEntity
  8
0
  6
CONTINUOUS
 62
     7
100
AcDbLine
 10
-66.04406811172521
 20
118.7441963317825
 30
0.0
 11
-66.04406811172521
 21
111.7235894372719
 31
0.0
  0
LINE
  5
290
330
1F
100
AcDbEntity
  8
0
  6
CONTINUOUS
 62
     7
100
AcDbLine
 10
-66.04406811172521
 20
107.3441963317823
 30
0.0
 11
-66.04406811172521
 21
107.5441963317825
 31
0.0
  0
LINE
  5
291
330
1F
100
AcDbEntity
  8
0
  6
CONTINUOUS
 62
     7
100
AcDbLine
 10
-66.04406811172521
 20
104.6441963317826
 30
0.0
 11
-66.04406811172521
 21
107.3441963317823
 31
0.0
  0
LINE
  5
292
330
1F
100
AcDbEntity
  8
0
  6
CONTINUOUS
 62
     7
100
AcDbLine
 10
-66.04406811172521
 20
129.1441963317826
 30
0.0
 11
-66.04406811172521
 21
123.7441963317825
 31
0.0
  0
LINE
  5
293
330
1F
100
AcDbEntity
  8
0
  6
CONTINUOUS
 62
     7
100
AcDbLine
 10
-66.04406811172521
 20
140.9441963317827
 30
0.0
 11
-66.04406811172521
 21
139.5441963317826
 31
0.0
  0
LINE
  5
294
330
1F
100
AcDbEntity
  8
0
  6
CONTINUOUS
 62
     7
100
AcDbLine
 10
-65.84406811172539
 20
107.3441963317823
 30
0.0
 11
-65.84406811172539
 21
102.0441963317827
 31
0.0
  0
LINE
  5
295
330
1F
100
AcDbEntity
  8
0
  6
CONTINUOUS
 62
     7
100
AcDbLine
 10
-83.24406811172526
 20
102.0441963317827
 30
0.0
 11
-65.84406811172539
 21
102.0441963317827
 31
0.0
  0
LINE
  5
296
330
1F
100
AcDbEntity
  8
0
  6
CONTINUOUS
 62
     7
100
AcDbLine
 10
-65.84406811172539
 20
141.0441963317826
 30
0.0
 11
-65.84406811172539
 21
146.4441963317827
 31
0.0
  0
LINE
  5
297
330
1F
100
AcDbEntity
  8
0
  6
CONTINUOUS
 62
     7
100
AcDbLine
 10
-65.84406811172539
 20
141.0441963317826
 30
0.0
 11
-66.04406811172521
 21
141.0441963317826
 31
0.0
  0
LINE
  5
298
330
1F
100
AcDbEntity
  8
0
  6
CONTINUOUS
 62
     7
100
AcDbLine
 10
-79.6940681117253
 20
142.8441963317826
 30
0.0
 11
-81.04406811172521
 21
142.8441963317826
 31
0.0
  0
LINE
  5
299
330
1F
100
AcDbEntity
  8
0
  6
CONTINUOUS
 62
     7
100
AcDbLine
 10
-66.04406811172521
 20
142.7441963317813
 30
0.0
 11
-66.04406811172521
 21
141.0441963317826
 31
0.0
  0
LINE
  5
29A
330
1F
100
AcDbEntity
  8
0
  6
CONTINUOUS
 62
     7
100
AcDbLine
 10
-66.04406811172521
 20
143.0941963317812
 30
0.0
 11
-66.04406811172521
 21
142.7441963317813
 31
0.0
  0
LINE
  5
29B
330
1F
100
AcDbEntity
  8
0
  6
CONTINUOUS
 62
     7
100
AcDbLine
 10
-68.89406811172535
 20
146.4441963317827
 30
0.0
 11
-65.84406811172539
 21
146.4441963317827
 31
0.0
  0
LINE
  5
29C
330
1F
100
AcDbEntity
  8
0
  6
CONTINUOUS
 62
     7
100
AcDbLine
 10
-83.24406811172526
 20
146.4441963317827
 30
0.0
 11
-83.24406811172526
 21
141.0441963317826
 31
0.0
  0
LINE
  5
29D
330
1F
100
AcDbEntity
  8
0
  6
CONTINUOUS
 62
     7
100
AcDbLine
 10
-83.24406811172526
 20
146.4441963317827
 30
0.0
 11
-80.1940681117253
 21
146.4441963317826
 31
0.0
  0
LINE
  5
29E
330
1F
100
AcDbEntity
  8
0
  6
CONTINUOUS
 62
     7
100
AcDbLine
 10
-83.04406811172521
 20
143.6441963317826
 30
0.0
 11
-83.04406811172521
 21
143.0941963317812
 31
0.0
  0
LINE
  5
29F
330
1F
100
AcDbEntity
  8
0
  6
CONTINUOUS
 62
     7
100
AcDbLine
 10
-79.6940681117253
 20
142.7941963317825
 30
0.0
 11
-79.6940681117253
 21
142.8441963317826
 31
0.0
  0
LINE
  5
2A0
330
1F
100
AcDbEntity
  8
0
  6
CONTINUOUS
 62
     7
100
AcDbLine
 10
-78.6940681117253
 20
142.8441963317826
 30
0.0
 11
-79.6940681117253
 21
142.8441963317826
 31
0.0
  0
LINE
  5
2A1
330
1F
100
AcDbEntity
  8
0
  6
CONTINUOUS
 62
     7
100
AcDbLine
 10
-70.39406811172535
 20
142.8441963317826
 30
0.0
 11
-78.6940681117253
 21
142.8441963317826
 31
0.0
  0
LINE
  5
2A2
330
1F
100
AcDbEntity
  8
0
  6
CONTINUOUS
 62
     7
100
AcDbLine
 10
-83.04406811172521
 20
143.0941963317812
 30
0.0
 11
-83.04406811172521
 21
142.7441963317813
 31
0.0
  0
LINE
  5
2A3
330
1F
100
AcDbEntity
  8
0
  6
CONTINUOUS
 62
     7
100
AcDbLine
 10
-83.04406811172521
 20
141.0441963317826
 30
0.0
 11
-83.04406811172521
 21
140.9441963317827
 31
0.0
  0
LINE
  5
2A4
330
1F
100
AcDbEntity
  8
0
  6
CONTINUOUS
 62
     7
100
AcDbLine
 10
-65.84406811172539
 20
118.7441963317825
 30
0.0
 11
-65.84406811172539
 21
123.7441963317825
 31
0.0
  0
LINE
  5
2A5
330
1F
100
AcDbEntity
  8
0
  6
CONTINUOUS
 62
     7
100
AcDbLine
 10
-65.84406811172539
 20
118.7441963317825
 30
0.0
 11
-66.04406811172521
 21
118.7441963317825
 31
0.0
  0
LINE
  5
2A6
330
1F
100
AcDbEntity
  8
0
  6
CONTINUOUS
 62
     7
100
AcDbLine
 10
-65.84406811172539
 20
123.7441963317825
 30
0.0
 11
-66.04406811172521
 21
123.7441963317825
 31
0.0
  0
LINE
  5
2A7
330
1F
100
AcDbEntity
  8
0
  6
CONTINUOUS
 62
     7
100
AcDbLine
 10
-65.84406811172539
 20
107.3441963317823
 30
0.0
 11
-66.04406811172521
 21
107.3441963317823
 31
0.0
  0
LINE
  5
2A8
330
1F
100
AcDbEntity
  8
0
  6
CONTINUOUS
 62
     7
100
AcDbLine
 10
-66.04406811172521
 20
111.7235894372719
 30
0.0
 11
-66.04406811172521
 21
110.6629292654918
 31
0.0
  0
LINE
  5
2A9
330
1F
100
AcDbEntity
  8
0
  6
CONTINUOUS
 62
     7
100
AcDbLine
 10
-66.04406811172521
 20
108.9441963317825
 30
0.0
 11
-66.04406811172521
 21
107.5441963317825
 31
0.0
  0
LINE
  5
2AA
330
1F
100
AcDbEntity
  8
0
  6
CONTINUOUS
 62
     7
100
AcDbLine
 10
-66.04406811172521
 20
110.6629292654918
 30
0.0
 11
-66.04406811172521
 21
108.9441963317825
 31
0.0
  0
LINE
  5
2AB
330
1F
100
AcDbEntity
  8
0
  6
CONTINUOUS
 62
     7
100
AcDbLine
 10
-66.04406811172521
 20
139.5441963317826
 30
0.0
 11
-66.04406811172521
 21
129.1441963317826
 31
0.0
  0
LINE
  5
2AC
330
1F
100
AcDbEntity
  8
0
  6
CONTINUOUS
 62
     7
100
AcDbLine
 10
-66.04406811172521
 20
143.6441963317826
 30
0.0
 11
-66.04406811172521
 21
143.0941963317812
 31
0.0
  0
LINE
  5
2AD
330
1F
100
AcDbEntity
  8
0
  6
CONTINUOUS
 62
     7
100
AcDbLine
 10
-66.04406811172521
 20
141.0441963317826
 30
0.0
 11
-66.04406811172521
 21
140.9441963317827
 31
0.0
  0
LINE
  5
2AE
330
1F
100
AcDbEntity
  8
0
  6
CONTINUOUS
 62
     7
100
AcDbLine
 10
-66.04406811172521
 20
119.0941963317826
 30
0.0
 11
-66.04406811172521
 21
118.7441963317825
 31
0.0
  0
LINE
  5
2AF
330
1F
100
AcDbEntity
  8
0
  6
CONTINUOUS
 62
     7
100
AcDbLine
 10
-66.04406811172521
 20
123.7441963317825
 30
0.0
 11
-66.04406811172521
 21
123.3941963317825
 31
0.0
  0
LINE
  5
2B0
330
1F
100
AcDbEntity
  8
0
  6
CONTINUOUS
 62
     7
100
AcDbLine
 10
-66.04406811172521
 20
123.3941963317825
 30
0.0
 11
-66.04406811172521
 21
119.0941963317826
 31
0.0
  0
LINE
  5
2B1
330
1F
100
AcDbEntity
  8
0
  6
CONTINUOUS
 62
     7
100
AcDbLine
 10
-66.04406811172521
 20
118.7441963317825
 30
0.0
 11
-66.04406811172521
 21
111.7235894372719
 31
0.0
  0
LINE
  5
2B2
330
1F
100
AcDbEntity
  8
0
  6
CONTINUOUS
 62
     7
100
AcDbLine
 10
-66.04406811172521
 20
107.3441963317823
 30
0.0
 11
-66.04406811172521
 21
107.5441963317825
 31
0.0
  0
LINE
  5
2B3
330
1F
100
AcDbEntity
  8
0
  6
CONTINUOUS
 62
     7
100
AcDbLine
 10
-66.04406811172521
 20
104.6441963317826
 30
0.0
 11
-66.04406811172521
 21
107.3441963317823
 31
0.0
  0
LINE
  5
2B4
330
1F
100
AcDbEntity
  8
0
  6
CONTINUOUS
 62
     7
100
AcDbLine
 10
-66.04406811172521
 20
129.1441963317826
 30
0.0
 11
-66.04406811172521
 21
123.7441963317825
 31
0.0
  0
LINE
  5
2B5
330
1F
100
AcDbEntity
  8
0
  6
CONTINUOUS
 62
     7
100
AcDbLine
 10
-69.39406811172535
 20
107.1441963317827
 30
0.0
 11
-68.04406811172521
 21
107.1441963317827
 31
0.0
  0
LINE
  5
2B6
330
1F
100
AcDbEntity
  8
0
  6
CONTINUOUS
 62
     7
100
AcDbLine
 10
-70.39406811172535
 20
107.1441963317827
 30
0.0
 11
-69.39406811172535
 21
107.1441963317827
 31
0.0
  0
LINE
  5
2B7
330
1F
100
AcDbEntity
  8
0
  6
CONTINUOUS
 62
     7
100
AcDbLine
 10
-72.84406811172539
 20
106.6441963317827
 30
0.0
 11
-72.84406811172539
 21
107.1441963317827
 31
0.0
  0
LINE
  5
2B8
330
1F
100
AcDbEntity
  8
0
  6
CONTINUOUS
 62
     7
100
AcDbLine
 10
-66.99406811172526
 20
138.4441961816797
 30
0.0
 11
-66.99406811172526
 21
139.4441961816797
 31
0.0
  0
LINE
  5
2B9
330
1F
100
AcDbEntity
  8
0
  6
CONTINUOUS
 62
     7
100
AcDbLine
 10
-66.99406811172526
 20
139.4441961816797
 30
0.0
 11
-66.99406811172526
 21
141.7941963317825
 31
0.0
  0
LINE
  5
2BA
330
1F
100
AcDbEntity
  8
0
  6
CONTINUOUS
 62
     7
100
AcDbLine
 10
-66.99406811172526
 20
110.5441963317827
 30
0.0
 11
-66.99406811172526
 21
111.5441963317827
 31
0.0
  0
LINE
  5
2BB
330
1F
100
AcDbEntity
  8
0
  6
CONTINUOUS
 62
     7
100
AcDbLine
 10
-66.99406811172526
 20
108.1941963317827
 30
0.0
 11
-66.99406811172526
 21
110.5441963317827
 31
0.0
  0
LINE
  5
2BC
330
1F
100
AcDbEntity
  8
0
  6
CONTINUOUS
 62
     7
100
AcDbLine
 10
-66.99406811172526
 20
111.5441963317827
 30
0.0
 11
-66.99406811172526
 21
138.4441961816797
 31
0.0
  0
LINE
  5
2BD
330
1F
100
AcDbEntity
  8
0
  6
CONTINUOUS
 62
     7
100
AcDbLine
 10
-66.99406811172526
 20
138.4441961816797
 30
0.0
 11
-67.04406811172521
 21
138.4441961816797
 31
0.0
  0
LINE
  5
2BE
330
1F
100
AcDbEntity
  8
0
  6
CONTINUOUS
 62
     7
100
AcDbLine
 10
-67.04406811172521
 20
139.4441961816797
 30
0.0
 11
-66.99406811172526
 21
139.4441961816797
 31
0.0
  0
LINE
  5
2BF
330
1F
100
AcDbEntity
  8
0
  6
CONTINUOUS
 62
     7
100
AcDbLine
 10
-66.99406811172526
 20
110.5441963317827
 30
0.0
 11
-67.04406811172521
 21
110.5441963317827
 31
0.0
  0
LINE
  5
2C0
330
1F
100
AcDbEntity
  8
0
  6
CONTINUOUS
 62
     7
100
AcDbLine
 10
-67.04406811172521
 20
111.5441963317827
 30
0.0
 11
-66.99406811172526
 21
111.5441963317827
 31
0.0
  0
LINE
  5
2C1
330
1F
100
AcDbEntity
  8
0
  6
CONTINUOUS
 62
     7
100
AcDbLine
 10
-69.39406811172535
 20
142.8441963317826
 30
0.0
 11
-70.39406811172535
 21
142.8441963317826
 31
0.0
  0
LINE
  5
2C2
330
1F
100
AcDbEntity
  8
0
  6
CONTINUOUS
 62
     7
100
AcDbLine
 10
-68.04406811172521
 20
142.8441963317826
 30
0.0
 11
-69.39406811172535
 21
142.8441963317826
 31
0.0
  0
LINE
  5
2C3
330
1F
100
AcDbEntity
  8
0
  6
CONTINUOUS
 62
     7
100
AcDbLine
 10
-69.39406811172535
 20
142.8441963317826
 30
0.0
 11
-69.39406811172535
 21
142.7941963317825
 31
0.0
  0
LINE
  5
2C4
330
1F
100
AcDbEntity
  8
0
  6
CONTINUOUS
 62
     7
100
AcDbLine
 10
-70.39406811172535
 20
142.7941963317825
 30
0.0
 11
-70.39406811172535
 21
142.8441963317826
 31
0.0
  0
LINE
  5
2C5
330
1F
100
AcDbEntity
  8
0
  6
CONTINUOUS
 62
     7
100
AcDbLine
 10
-69.39406811172535
 20
107.1941963317827
 30
0.0
 11
-69.39406811172535
 21
107.1441963317827
 31
0.0
  0
LINE
  5
2C6
330
1F
100
AcDbEntity
  8
0
  6
CONTINUOUS
 62
     7
100
AcDbLine
 10
-83.24406811172526
 20
107.3441963317823
 30
0.0
 11
-83.24406811172526
 21
102.0441963317827
 31
0.0
  0
LINE
  5
2C7
330
1F
100
AcDbEntity
  8
0
  6
CONTINUOUS
 62
     7
100
AcDbLine
 10
-83.24406811172526
 20
123.7441963317825
 30
0.0
 11
-83.24406811172526
 21
118.7441963317825
 31
0.0
  0
LINE
  5
2C8
330
1F
100
AcDbEntity
  8
0
  6
CONTINUOUS
 62
     7
100
AcDbLine
 10
-83.04406811172521
 20
118.7441963317825
 30
0.0
 11
-83.24406811172526
 21
118.7441963317825
 31
0.0
  0
LINE
  5
2C9
330
1F
100
AcDbEntity
  8
0
  6
CONTINUOUS
 62
     7
100
AcDbLine
 10
-83.04406811172521
 20
141.0441963317826
 30
0.0
 11
-83.24406811172526
 21
141.0441963317826
 31
0.0
  0
LINE
  5
2CA
330
1F
100
AcDbEntity
  8
0
  6
CONTINUOUS
 62
     7
100
AcDbLine
 10
-83.04406811172521
 20
123.7441963317825
 30
0.0
 11
-83.24406811172526
 21
123.7441963317825
 31
0.0
  0
LINE
  5
2CB
330
1F
100
AcDbEntity
  8
0
  6
CONTINUOUS
 62
     7
100
AcDbLine
 10
-83.04406811172521
 20
107.3441963317826
 30
0.0
 11
-83.24406811172526
 21
107.3441963317823
 31
0.0
  0
LINE
  5
2CC
330
1F
100
AcDbEntity
  8
0
  6
CONTINUOUS
 62
     7
100
AcDbLine
 10
-82.09406811172539
 20
110.5441963317827
 30
0.0
 11
-82.09406811172539
 21
108.1941963317827
 31
0.0
  0
LINE
  5
2CD
330
1F
100
AcDbEntity
  8
0
  6
CONTINUOUS
 62
     7
100
AcDbLine
 10
-78.6940681117253
 20
107.1441963317827
 30
0.0
 11
-76.24406811172526
 21
107.1441963317827
 31
0.0
  0
LINE
  5
2CE
330
1F
100
AcDbEntity
  8
0
  6
CONTINUOUS
 62
     7
100
AcDbLine
 10
-79.6940681117253
 20
107.1941963317827
 30
0.0
 11
-79.6940681117253
 21
107.1441963317827
 31
0.0
  0
LINE
  5
2CF
330
1F
100
AcDbEntity
  8
0
  6
CONTINUOUS
 62
     7
100
AcDbLine
 10
-79.6940681117253
 20
107.1441963317827
 30
0.0
 11
-78.6940681117253
 21
107.1441963317827
 31
0.0
  0
LINE
  5
2D0
330
1F
100
AcDbEntity
  8
0
  6
CONTINUOUS
 62
     7
100
AcDbLine
 10
-81.04406811172521
 20
107.1441963317827
 30
0.0
 11
-79.6940681117253
 21
107.1441963317827
 31
0.0
  0
LINE
  5
2D1
330
1F
100
AcDbEntity
  8
0
  6
CONTINUOUS
 62
     7
100
AcDbLine
 10
-76.24406811172526
 20
107.1441963317827
 30
0.0
 11
-76.24406811172526
 21
106.6441963317827
 31
0.0
  0
LINE
  5
2D2
330
1F
100
AcDbEntity
  8
0
  6
CONTINUOUS
 62
     7
100
AcDbLine
 10
-83.04406811172521
 20
107.3441963317826
 30
0.0
 11
-83.04406811172521
 21
107.5441963317825
 31
0.0
  0
LINE
  5
2D3
330
1F
100
AcDbEntity
  8
0
  6
CONTINUOUS
 62
     7
100
AcDbLine
 10
-83.04406811172521
 20
108.9441963317825
 30
0.0
 11
-83.04406811172521
 21
107.5441963317825
 31
0.0
  0
LINE
  5
2D4
330
1F
100
AcDbEntity
  8
0
  6
CONTINUOUS
 62
     7
100
AcDbLine
 10
-83.04406811172521
 20
104.6441963317826
 30
0.0
 11
-83.04406811172521
 21
107.3441963317826
 31
0.0
  0
LINE
  5
2D5
330
1F
100
AcDbEntity
  8
0
  6
CONTINUOUS
 62
     7
100
AcDbLine
 10
-83.04406811172521
 20
119.0941963317826
 30
0.0
 11
-83.04406811172521
 21
118.7441963317825
 31
0.0
  0
LINE
  5
2D6
330
1F
100
AcDbEntity
  8
0
  6
CONTINUOUS
 62
     7
100
AcDbLine
 10
-83.04406811172521
 20
123.7441963317825
 30
0.0
 11
-83.04406811172521
 21
123.3941963317825
 31
0.0
  0
LINE
  5
2D7
330
1F
100
AcDbEntity
  8
0
  6
CONTINUOUS
 62
     7
100
AcDbLine
 10
-83.04406811172521
 20
123.3941963317825
 30
0.0
 11
-83.04406811172521
 21
119.0941963317826
 31
0.0
  0
LINE
  5
2D8
330
1F
100
AcDbEntity
  8
0
  6
CONTINUOUS
 62
     7
100
AcDbLine
 10
-83.04406811172521
 20
110.6629292654916
 30
0.0
 11
-83.04406811172521
 21
108.9441963317825
 31
0.0
  0
LINE
  5
2D9
330
1F
100
AcDbEntity
  8
0
  6
CONTINUOUS
 62
     7
100
AcDbLine
 10
-83.04406811172521
 20
111.7235894372714
 30
0.0
 11
-83.04406811172521
 21
110.6629292654916
 31
0.0
  0
LINE
  5
2DA
330
1F
100
AcDbEntity
  8
0
  6
CONTINUOUS
 62
     7
100
AcDbLine
 10
-83.04406811172521
 20
139.5441963317826
 30
0.0
 11
-83.04406811172521
 21
129.1441963317826
 31
0.0
  0
LINE
  5
2DB
330
1F
100
AcDbEntity
  8
0
  6
CONTINUOUS
 62
     7
100
AcDbLine
 10
-83.04406811172521
 20
129.1441963317826
 30
0.0
 11
-83.04406811172521
 21
123.7441963317825
 31
0.0
  0
LINE
  5
2DC
330
1F
100
AcDbEntity
  8
0
  6
CONTINUOUS
 62
     7
100
AcDbLine
 10
-83.04406811172521
 20
118.7441963317825
 30
0.0
 11
-83.04406811172521
 21
111.7235894372714
 31
0.0
  0
LINE
  5
2DD
330
1F
100
AcDbEntity
  8
0
  6
CONTINUOUS
 62
     7
100
AcDbLine
 10
-83.04406811172521
 20
142.7441963317813
 30
0.0
 11
-83.04406811172521
 21
141.0441963317826
 31
0.0
  0
LINE
  5
2DE
330
1F
100
AcDbEntity
  8
0
  6
CONTINUOUS
 62
     7
100
AcDbLine
 10
-82.09406811172539
 20
111.5441963317827
 30
0.0
 11
-82.04406811172521
 21
111.5441963317827
 31
0.0
  0
LINE
  5
2DF
330
1F
100
AcDbEntity
  8
0
  6
CONTINUOUS
 62
     7
100
AcDbLine
 10
-82.04406811172521
 20
110.5441963317827
 30
0.0
 11
-82.09406811172539
 21
110.5441963317827
 31
0.0
  0
LINE
  5
2E0
330
1F
100
AcDbEntity
  8
0
  6
CONTINUOUS
 62
     7
100
AcDbLine
 10
-82.09406811172539
 20
139.4441961816797
 30
0.0
 11
-82.09406811172539
 21
138.4441961816797
 31
0.0
  0
LINE
  5
2E1
330
1F
100
AcDbEntity
  8
0
  6
CONTINUOUS
 62
     7
100
AcDbLine
 10
-82.09406811172539
 20
141.7941963317825
 30
0.0
 11
-82.09406811172539
 21
139.4441961816797
 31
0.0
  0
LINE
  5
2E2
330
1F
100
AcDbEntity
  8
0
  6
CONTINUOUS
 62
     7
100
AcDbLine
 10
-82.09406811172539
 20
111.5441963317827
 30
0.0
 11
-82.09406811172539
 21
110.5441963317827
 31
0.0
  0
LINE
  5
2E3
330
1F
100
AcDbEntity
  8
0
  6
CONTINUOUS
 62
     7
100
AcDbLine
 10
-82.09406811172539
 20
138.4441961816797
 30
0.0
 11
-82.09406811172539
 21
111.5441963317827
 31
0.0
  0
LINE
  5
2E4
330
1F
100
AcDbEntity
  8
0
  6
CONTINUOUS
 62
     7
100
AcDbLine
 10
-82.09406811172539
 20
139.4441961816797
 30
0.0
 11
-82.04406811172521
 21
139.4441961816797
 31
0.0
  0
LINE
  5
2E5
330
1F
100
AcDbEntity
  8
0
  6
CONTINUOUS
 62
     7
100
AcDbLine
 10
-82.04406811172521
 20
138.4441961816797
 30
0.0
 11
-82.09406811172539
 21
138.4441961816797
 31
0.0
  0
LINE
  5
2E6
330
1F
100
AcDbEntity
  8
0
  6
CONTINUOUS
 62
     7
100
AcDbLine
 10
-78.6940681117253
 20
142.8441963317826
 30
0.0
 11
-78.6940681117253
 21
142.7941963317825
 31
0.0
  0
LINE
  5
2E7
330
1F
100
AcDbEntity
  8
0
  6
CONTINUOUS
 62
     7
100
AcDbLine
 10
-78.6940681117253
 20
107.1441963317827
 30
0.0
 11
-78.6940681117253
 21
107.1941963317827
 31
0.0
  0
LINE
  5
2E8
330
1F
100
AcDbEntity
  8
0
  6
CONTINUOUS
 62
     7
100
AcDbLine
 10
-72.84406811172539
 20
107.1441963317827
 30
0.0
 11
-70.39406811172535
 21
107.1441963317827
 31
0.0
  0
LINE
  5
2E9
330
1F
100
AcDbEntity
  8
0
  6
CONTINUOUS
 62
     7
100
AcDbLine
 10
-70.39406811172535
 20
107.1441963317827
 30
0.0
 11
-70.39406811172535
 21
107.1941963317827
 31
0.0
  0
LINE
  5
2EA
330
1F
100
AcDbEntity
  8
0
  6
CONTINUOUS
 62
     7
100
AcDbLine
 10
-72.84406811172539
 20
107.1441963317827
 30
0.0
 11
-72.84406811172539
 21
107.1941963317827
 31
0.0
  0
LINE
  5
2EB
330
1F
100
AcDbEntity
  8
0
  6
CONTINUOUS
 62
     7
100
AcDbLine
 10
-76.24406811172526
 20
106.6441963317827
 30
0.0
 11
-72.84406811172539
 21
106.6441963317827
 31
0.0
  0
LINE
  5
2EC
330
1F
100
AcDbEntity
  8
0
  6
CONTINUOUS
 62
     7
100
AcDbLine
 10
-76.24406811172526
 20
107.1941963317827
 30
0.0
 11
-76.24406811172526
 21
107.1441963317827
 31
0.0
  0
LINE
  5
2ED
330
1F
100
AcDbEntity
  8
0
  6
CONTINUOUS
 62
     7
100
AcDbLine
 10
-66.04406811172521
 20
140.9441963317827
 30
0.0
 11
-66.04406811172521
 21
139.5441963317826
 31
0.0
  0
LINE
  5
2EE
330
1F
100
AcDbEntity
  8
0
  6
CONTINUOUS
 62
     7
100
AcDbLine
 10
-83.04406811172521
 20
140.9441963317827
 30
0.0
 11
-83.04406811172521
 21
139.5441963317826
 31
0.0
  0
LINE
  5
2EF
330
1F
100
AcDbEntity
  8
0
  6
CONTINUOUS
 62
     7
100
AcDbLine
 10
-68.04406811172521
 20
107.1941963317827
 30
0.0
 11
-73.04406811172521
 21
107.1941963317827
 31
0.0
  0
LINE
  5
2F0
330
1F
100
AcDbEntity
  8
0
  6
CONTINUOUS
 62
     7
100
AcDbLine
 10
-81.04406811172521
 20
142.7941963317825
 30
0.0
 11
-68.04406811172521
 21
142.7941963317825
 31
0.0
  0
LINE
  5
2F1
330
1F
100
AcDbEntity
  8
0
  6
CONTINUOUS
 62
     7
100
AcDbLine
 10
-67.04406811172521
 20
141.7941963317825
 30
0.0
 11
-67.04406811172521
 21
108.1941963317827
 31
0.0
  0
LINE
  5
2F2
330
1F
100
AcDbEntity
  8
0
  6
CONTINUOUS
 62
     7
100
AcDbLine
 10
-68.79406811172521
 20
118.9441961816797
 30
0.0
 11
-68.79406811172521
 21
135.0441963317825
 31
0.0
  0
LINE
  5
2F3
330
1F
100
AcDbEntity
  8
0
  6
CONTINUOUS
 62
     7
100
AcDbLine
 10
-82.04406811172521
 20
108.1941963317827
 30
0.0
 11
-82.04406811172521
 21
141.7941963317825
 31
0.0
  0
LINE
  5
2F4
330
1F
100
AcDbEntity
  8
0
  6
CONTINUOUS
 62
     7
100
AcDbLine
 10
-76.04406811172521
 20
107.1941963317827
 30
0.0
 11
-81.04406811172521
 21
107.1941963317827
 31
0.0
  0
LINE
  5
2F5
330
1F
100
AcDbEntity
  8
0
  6
CONTINUOUS
 62
     7
100
AcDbLine
 10
-80.29406811172521
 20
135.0441963317825
 30
0.0
 11
-80.29406811172521
 21
118.9441961816797
 31
0.0
  0
LINE
  5
2F6
330
1F
100
AcDbEntity
  8
0
  6
CONTINUOUS
 62
     7
100
AcDbLine
 10
-79.29406811172521
 20
117.9441961816797
 30
0.0
 11
-76.99202644470438
 21
117.9441961816797
 31
0.0
  0
LINE
  5
2F7
330
1F
100
AcDbEntity
  8
0
  6
CONTINUOUS
 62
     7
100
AcDbLine
 10
-69.79406811172521
 20
136.0441963317825
 30
0.0
 11
-79.29406811172521
 21
136.0441963317825
 31
0.0
  0
LINE
  5
2F8
330
1F
100
AcDbEntity
  8
0
  6
CONTINUOUS
 62
     7
100
AcDbLine
 10
-72.09610977874627
 20
117.9441961816797
 30
0.0
 11
-69.79406811172521
 21
117.9441961816797
 31
0.0
  0
LINE
  5
2F9
330
1F
100
AcDbEntity
  8
0
  6
CONTINUOUS
 62
     7
100
AcDbLine
 10
-73.04406811172521
 20
106.8941963317827
 30
0.0
 11
-76.04406811172521
 21
106.8941963317827
 31
0.0
  0
LINE
  5
2FA
330
1F
100
AcDbEntity
  8
0
  6
CONTINUOUS
 62
     7
100
AcDbLine
 10
-73.04406811172521
 20
107.1941963317827
 30
0.0
 11
-73.04406811172521
 21
106.8941963317827
 31
0.0
  0
LINE
  5
2FB
330
1F
100
AcDbEntity
  8
0
  6
CONTINUOUS
 62
     7
100
AcDbLine
 10
-73.57453214024235
 20
120.2941961816796
 30
0.0
 11
-75.51360408320829
 21
120.2941961816796
 31
0.0
  0
LINE
  5
2FC
330
1F
100
AcDbEntity
  8
0
  6
CONTINUOUS
 62
     7
100
AcDbLine
 10
-76.04406811172521
 20
106.8941963317827
 30
0.0
 11
-76.04406811172521
 21
107.1941963317827
 31
0.0
  0
LINE
  5
2FD
330
1F
100
AcDbEntity
  8
0
  6
CONTINUOUS
 62
     7
100
AcDbLine
 10
-7.89406845963731
 20
146.4491963317826
 30
0.0
 11
-21.39406845963731
 21
146.4491963317826
 31
0.0
  0
LINE
  5
2FE
330
1F
100
AcDbEntity
  8
0
  6
CONTINUOUS
 62
     7
100
AcDbLine
 10
3.3559318591906
 20
145.0720601631422
 30
0.0
 11
3.3559318591906
 21
142.5441962692205
 31
0.0
  0
LINE
  5
2FF
330
1F
100
AcDbEntity
  8
0
  6
CONTINUOUS
 62
     7
100
AcDbLine
 10
3.35593185904372
 20
145.1720601627067
 30
0.0
 11
3.3559318591906
 21
145.0933351022502
 31
0.0
  0
LINE
  5
300
330
1F
100
AcDbEntity
  8
0
  6
CONTINUOUS
 62
     7
100
AcDbLine
 10
3.14478624135768
 20
146.0664873537901
 30
0.0
 11
2.4113254836368
 21
147.533408870685
 31
0.0
  0
LINE
  5
301
330
1F
100
AcDbEntity
  8
0
  6
CONTINUOUS
 62
     7
100
AcDbLine
 10
-0.89406811172535
 20
145.0441963317819
 30
0.0
 11
-24.24406811172526
 21
145.0441963317819
 31
0.0
  0
LINE
  5
302
330
1F
100
AcDbEntity
  8
0
  6
CONTINUOUS
 62
     7
100
AcDbLine
 10
-12.64406767409832
 20
104.3441963317828
 30
0.0
 11
-12.64406767409832
 21
104.6441963317826
 31
0.0
  0
LINE
  5
303
330
1F
100
AcDbEntity
  8
0
  6
CONTINUOUS
 62
     7
100
AcDbLine
 10
-11.24406767409823
 20
102.9441963317827
 30
0.0
 11
-8.14417189533333
 21
102.9441963317827
 31
0.0
  0
LINE
  5
304
330
1F
100
AcDbEntity
  8
0
  6
CONTINUOUS
 62
     7
100
AcDbLine
 10
0.5559318882747
 20
142.2441962692206
 30
0.0
 11
0.5559318882747
 21
143.5941963317819
 31
0.0
  0
LINE
  5
305
330
1F
100
AcDbEntity
  8
0
  6
CONTINUOUS
 62
     7
100
AcDbLine
 10
-29.9440681117253
 20
139.5441963317826
 30
0.0
 11
-29.9440681117253
 21
139.4441961816797
 31
0.0
  0
LINE
  5
306
330
1F
100
AcDbEntity
  8
0
  6
CONTINUOUS
 62
     7
100
AcDbLine
 10
-28.54406811172521
 20
107.5441963317825
 30
0.0
 11
-15.54406767409819
 21
107.5441963317826
 31
0.0
  0
LINE
  5
307
330
1F
100
AcDbEntity
  8
0
  6
CONTINUOUS
 62
     7
100
AcDbLine
 10
-28.54406811172521
 20
140.9441963317827
 30
0.0
 11
-28.53941443070835
 21
140.9441963317827
 31
0.0
  0
LINE
  5
308
330
1F
100
AcDbEntity
  8
0
  6
CONTINUOUS
 62
     7
100
AcDbLine
 10
-7.11886706261225
 20
103.3688914990621
 30
0.0
 11
0.13123672099482
 21
110.6189952826696
 31
0.0
  0
LINE
  5
309
330
1F
100
AcDbEntity
  8
0
  6
CONTINUOUS
 62
     7
100
AcDbLine
 10
-29.9440681117253
 20
138.2441961816796
 30
0.0
 11
-29.9440681117253
 21
137.6441963317826
 31
0.0
  0
LINE
  5
30A
330
1F
100
AcDbEntity
  8
0
  6
CONTINUOUS
 62
     7
100
AcDbLine
 10
-29.9440681117253
 20
137.6441963317826
 30
0.0
 11
-29.9440681117253
 21
137.2441963317825
 31
0.0
  0
LINE
  5
30B
330
1F
100
AcDbEntity
  8
0
  6
CONTINUOUS
 62
     7
100
AcDbLine
 10
-29.9440681117253
 20
137.2441963317825
 30
0.0
 11
-29.9440681117253
 21
136.1441963317825
 31
0.0
  0
LINE
  5
30C
330
1F
100
AcDbEntity
  8
0
  6
CONTINUOUS
 62
     7
100
AcDbLine
 10
-29.9440681117253
 20
139.4441961816797
 30
0.0
 11
-29.9440681117253
 21
138.2441961816796
 31
0.0
  0
LINE
  5
30D
330
1F
100
AcDbEntity
  8
0
  6
CONTINUOUS
 62
     7
100
AcDbLine
 10
-29.9440681117253
 20
113.7441961816796
 30
0.0
 11
-29.9440681117253
 21
112.7441961816796
 31
0.0
  0
LINE
  5
30E
330
1F
100
AcDbEntity
  8
0
  6
CONTINUOUS
 62
     7
100
AcDbLine
 10
-29.9440681117253
 20
112.7441961816796
 30
0.0
 11
-29.9440681117253
 21
109.9441963317827
 31
0.0
  0
LINE
  5
30F
330
1F
100
AcDbEntity
  8
0
  6
CONTINUOUS
 62
     7
100
AcDbLine
 10
-29.9440681117253
 20
109.9441963317827
 30
0.0
 11
-29.9440681117253
 21
108.9441963317825
 31
0.0
  0
LINE
  5
310
330
1F
100
AcDbEntity
  8
0
  6
CONTINUOUS
 62
     7
100
AcDbLine
 10
-29.9440681117253
 20
136.1441963317825
 30
0.0
 11
-29.9440681117253
 21
113.7441961816796
 31
0.0
  0
LINE
  5
311
330
1F
100
AcDbEntity
  8
0
  6
CONTINUOUS
 62
     7
100
AcDbLine
 10
0.5559318882747
 20
123.9441963317827
 30
0.0
 11
0.85593188827465
 21
123.9441963317827
 31
0.0
  0
LINE
  5
312
330
1F
100
AcDbEntity
  8
0
  6
CONTINUOUS
 62
     7
100
AcDbLine
 10
0.5559318882747
 20
128.9441963317827
 30
0.0
 11
0.5559318882747
 21
138.8796220075024
 31
0.0
  0
LINE
  5
313
330
1F
100
AcDbEntity
  8
0
  6
CONTINUOUS
 62
     7
100
AcDbLine
 10
0.85593188827465
 20
128.9441963317827
 30
0.0
 11
0.5559318882747
 21
128.9441963317827
 31
0.0
  0
LINE
  5
314
330
1F
100
AcDbEntity
  8
0
  6
CONTINUOUS
 62
     7
100
AcDbLine
 10
0.5559318882747
 20
111.64430011539
 30
0.0
 11
0.5559318882747
 21
123.9441963317827
 31
0.0
  0
LINE
  5
315
330
1F
100
AcDbEntity
  8
0
  6
CONTINUOUS
 62
     7
100
AcDbLine
 10
0.5559318882747
 20
138.8796220075024
 30
0.0
 11
0.5559318882747
 21
142.2441962692206
 31
0.0
  0
LINE
  5
316
330
1F
100
AcDbEntity
  8
0
  6
CONTINUOUS
 62
     7
100
AcDbLine
 10
0.85593188827465
 20
123.9441963317827
 30
0.0
 11
0.85593188827465
 21
128.9441963317827
 31
0.0
  0
LINE
  5
317
330
1F
100
AcDbEntity
  8
0
  6
CONTINUOUS
 62
     7
100
AcDbLine
 10
-0.89406811172535
 20
145.0441963317819
 30
0.0
 11
-24.24406811172526
 21
145.0441963317819
 31
0.0
  0
LINE
  5
318
330
1F
100
AcDbEntity
  8
0
  6
CONTINUOUS
 62
     7
100
AcDbLine
 10
-12.64406767409832
 20
104.3441963317828
 30
0.0
 11
-12.64406767409832
 21
104.6441963317826
 31
0.0
  0
LINE
  5
319
330
1F
100
AcDbEntity
  8
0
  6
CONTINUOUS
 62
     7
100
AcDbLine
 10
-11.24406767409823
 20
102.9441963317827
 30
0.0
 11
-8.14417189533333
 21
102.9441963317827
 31
0.0
  0
LINE
  5
31A
330
1F
100
AcDbEntity
  8
0
  6
CONTINUOUS
 62
     7
100
AcDbLine
 10
0.5559318882747
 20
142.2441962692206
 30
0.0
 11
0.5559318882747
 21
143.5941963317819
 31
0.0
  0
LINE
  5
31B
330
1F
100
AcDbEntity
  8
0
  6
CONTINUOUS
 62
     7
100
AcDbLine
 10
-29.9440681117253
 20
139.5441963317826
 30
0.0
 11
-29.9440681117253
 21
139.4441961816797
 31
0.0
  0
LINE
  5
31C
330
1F
100
AcDbEntity
  8
0
  6
CONTINUOUS
 62
     7
100
AcDbLine
 10
-28.54406811172521
 20
107.5441963317825
 30
0.0
 11
-15.54406767409819
 21
107.5441963317826
 31
0.0
  0
LINE
  5
31D
330
1F
100
AcDbEntity
  8
0
  6
CONTINUOUS
 62
     7
100
AcDbLine
 10
-5.64406811172535
 20
113.1441963317818
 30
0.0
 11
-25.64406811172535
 21
113.1441963317818
 31
0.0
  0
LINE
  5
31E
330
1F
100
AcDbEntity
  8
0
  6
CONTINUOUS
 62
     7
100
AcDbLine
 10
-25.64406811172535
 20
138.5441963317819
 30
0.0
 11
-5.64406811172535
 21
138.5441963317819
 31
0.0
  0
LINE
  5
31F
330
1F
100
AcDbEntity
  8
0
  6
CONTINUOUS
 62
     7
100
AcDbLine
 10
-28.54406811172521
 20
140.9441963317827
 30
0.0
 11
-28.53941443070835
 21
140.9441963317827
 31
0.0
  0
LINE
  5
320
330
1F
100
AcDbEntity
  8
0
  6
CONTINUOUS
 62
     7
100
AcDbLine
 10
-5.4440681117253
 20
138.3441963317819
 30
0.0
 11
-5.4440681117253
 21
113.3441963317819
 31
0.0
  0
LINE
  5
321
330
1F
100
AcDbEntity
  8
0
  6
CONTINUOUS
 62
     7
100
AcDbLine
 10
-25.84406811172539
 20
113.3441963317819
 30
0.0
 11
-25.84406811172539
 21
138.3441963317819
 31
0.0
  0
LINE
  5
322
330
1F
100
AcDbEntity
  8
0
  6
CONTINUOUS
 62
     7
100
AcDbLine
 10
-7.11886706261225
 20
103.3688914990621
 30
0.0
 11
0.13123672099482
 21
110.6189952826696
 31
0.0
  0
LINE
  5
323
330
1F
100
AcDbEntity
  8
0
  6
CONTINUOUS
 62
     7
100
AcDbLine
 10
-29.9440681117253
 20
138.2441961816796
 30
0.0
 11
-29.9440681117253
 21
137.6441963317826
 31
0.0
  0
LINE
  5
324
330
1F
100
AcDbEntity
  8
0
  6
CONTINUOUS
 62
     7
100
AcDbLine
 10
-29.9440681117253
 20
137.6441963317826
 30
0.0
 11
-29.9440681117253
 21
137.2441963317825
 31
0.0
  0
LINE
  5
325
330
1F
100
AcDbEntity
  8
0
  6
CONTINUOUS
 62
     7
100
AcDbLine
 10
-29.9440681117253
 20
137.2441963317825
 30
0.0
 11
-29.9440681117253
 21
136.1441963317825
 31
0.0
  0
LINE
  5
326
330
1F
100
AcDbEntity
  8
0
  6
CONTINUOUS
 62
     7
100
AcDbLine
 10
-29.9440681117253
 20
139.4441961816797
 30
0.0
 11
-29.9440681117253
 21
138.2441961816796
 31
0.0
  0
LINE
  5
327
330
1F
100
AcDbEntity
  8
0
  6
CONTINUOUS
 62
     7
100
AcDbLine
 10
-29.9440681117253
 20
113.7441961816796
 30
0.0
 11
-29.9440681117253
 21
112.7441961816796
 31
0.0
  0
LINE
  5
328
330
1F
100
AcDbEntity
  8
0
  6
CONTINUOUS
 62
     7
100
AcDbLine
 10
-29.9440681117253
 20
112.7441961816796
 30
0.0
 11
-29.9440681117253
 21
109.9441963317827
 31
0.0
  0
LINE
  5
329
330
1F
100
AcDbEntity
  8
0
  6
CONTINUOUS
 62
     7
100
AcDbLine
 10
-29.9440681117253
 20
109.9441963317827
 30
0.0
 11
-29.9440681117253
 21
108.9441963317825
 31
0.0
  0
LINE
  5
32A
330
1F
100
AcDbEntity
  8
0
  6
CONTINUOUS
 62
     7
100
AcDbLine
 10
-29.9440681117253
 20
136.1441963317825
 30
0.0
 11
-29.9440681117253
 21
113.7441961816796
 31
0.0
  0
LINE
  5
32B
330
1F
100
AcDbEntity
  8
0
  6
CONTINUOUS
 62
     7
100
AcDbLine
 10
0.5559318882747
 20
123.9441963317827
 30
0.0
 11
0.85593188827465
 21
123.9441963317827
 31
0.0
  0
LINE
  5
32C
330
1F
100
AcDbEntity
  8
0
  6
CONTINUOUS
 62
     7
100
AcDbLine
 10
0.5559318882747
 20
128.9441963317827
 30
0.0
 11
0.5559318882747
 21
138.8796220075024
 31
0.0
  0
LINE
  5
32D
330
1F
100
AcDbEntity
  8
0
  6
CONTINUOUS
 62
     7
100
AcDbLine
 10
0.85593188827465
 20
128.9441963317827
 30
0.0
 11
0.5559318882747
 21
128.9441963317827
 31
0.0
  0
LINE
  5
32E
330
1F
100
AcDbEntity
  8
0
  6
CONTINUOUS
 62
     7
100
AcDbLine
 10
0.5559318882747
 20
111.64430011539
 30
0.0
 11
0.5559318882747
 21
123.9441963317827
 31
0.0
  0
LINE
  5
32F
330
1F
100
AcDbEntity
  8
0
  6
CONTINUOUS
 62
     7
100
AcDbLine
 10
0.5559318882747
 20
138.8796220075024
 30
0.0
 11
0.5559318882747
 21
142.2441962692206
 31
0.0
  0
LINE
  5
330
330
1F
100
AcDbEntity
  8
0
  6
CONTINUOUS
 62
     7
100
AcDbLine
 10
0.85593188827465
 20
123.9441963317827
 30
0.0
 11
0.85593188827465
 21
128.9441963317827
 31
0.0
  0
LINE
  5
331
330
1F
100
AcDbEntity
  8
0
  6
CONTINUOUS
 62
     7
100
AcDbLine
 10
-24.24872179274234
 20
145.1441963317811
 30
0.0
 11
-2.89406814041331
 21
145.1441963317811
 31
0.0
  0
LINE
  5
332
330
1F
100
AcDbEntity
  8
0
  6
CONTINUOUS
 62
     7
100
AcDbLine
 10
-0.74406811172526
 20
145.1441963317811
 30
0.0
 11
-2.89406814041331
 21
145.1441963317811
 31
0.0
  0
LINE
  5
333
330
1F
100
AcDbEntity
  8
0
  6
CONTINUOUS
 62
     7
100
AcDbLine
 10
0.75593188827474
 20
111.7235894372719
 30
0.0
 11
0.75593188827474
 21
119.0941963317826
 31
0.0
  0
LINE
  5
334
330
1F
100
AcDbEntity
  8
0
  6
CONTINUOUS
 62
     7
100
AcDbLine
 10
1.45593185958683
 20
110.8780050250005
 30
0.0
 11
1.45593185958683
 21
119.0941963317826
 31
0.0
  0
LINE
  5
335
330
1F
100
AcDbEntity
  8
0
  6
CONTINUOUS
 62
     7
100
AcDbLine
 10
1.45593185958683
 20
119.0941963317826
 30
0.0
 11
1.4559318739307
 21
123.3941963317826
 31
0.0
  0
LINE
  5
336
330
1F
100
AcDbEntity
  8
0
  6
CONTINUOUS
 62
     7
100
AcDbLine
 10
1.45593185958683
 20
137.0441963325745
 30
0.0
 11
1.45593185958683
 21
143.0941963317812
 31
0.0
  0
LINE
  5
337
330
1F
100
AcDbEntity
  8
0
  6
CONTINUOUS
 62
     7
100
AcDbLine
 10
0.75593188827474
 20
129.1441963317826
 30
0.0
 11
0.75593188827474
 21
143.0941963317812
 31
0.0
  0
LINE
  5
338
330
1F
100
AcDbEntity
  8
0
  6
CONTINUOUS
 62
     7
100
AcDbLine
 10
0.75593187393065
 20
123.3941963317825
 30
0.0
 11
0.75593188827474
 21
119.0941963317826
 31
0.0
  0
LINE
  5
339
330
1F
100
AcDbEntity
  8
0
  6
CONTINUOUS
 62
     7
100
AcDbLine
 10
0.95593185958683
 20
146.4441963317827
 30
0.0
 11
-2.89406814041331
 21
146.4441963317827
 31
0.0
  0
LINE
  5
33A
330
1F
100
AcDbEntity
  8
0
  6
CONTINUOUS
 62
     7
100
AcDbLine
 10
0.31659206005475
 20
110.6629292654918
 30
0.0
 11
-7.0628010454343
 21
103.2835361600028
 31
0.0
  0
LINE
  5
33B
330
1F
100
AcDbEntity
  8
0
  6
CONTINUOUS
 62
     7
100
AcDbLine
 10
1.45593185958683
 20
145.9441963317827
 30
0.0
 11
1.45593185958683
 21
143.0941963317812
 31
0.0
  0
LINE
  5
33C
330
1F
100
AcDbEntity
  8
0
  6
CONTINUOUS
 62
     7
100
AcDbLine
 10
0.75593188827474
 20
143.0941963317812
 30
0.0
 11
0.75593188827474
 21
143.6441963317811
 31
0.0
  0
LINE
  5
33D
330
1F
100
AcDbEntity
  8
0
  6
CONTINUOUS
 62
     7
100
AcDbLine
 10
3.3559318591906
 20
145.0720601631422
 30
0.0
 11
3.3559318591906
 21
142.5441962692205
 31
0.0
  0
LINE
  5
33E
330
1F
100
AcDbEntity
  8
0
  6
CONTINUOUS
 62
     7
100
AcDbLine
 10
3.14478624119079
 20
145.9664873541419
 30
0.0
 11
2.47209431377269
 21
147.3118712089778
 31
0.0
  0
LINE
  5
33F
330
1F
100
AcDbEntity
  8
0
  6
CONTINUOUS
 62
     7
100
AcDbLine
 10
-25.4928420986173
 20
146.4441963317827
 30
0.0
 11
-4.24406845963722
 21
146.4441963317827
 31
0.0
  0
LINE
  5
340
330
1F
100
AcDbEntity
  8
0
  6
CONTINUOUS
 62
     7
100
AcDbLine
 10
-8.1234612172143
 20
102.8441963317828
 30
0.0
 11
-11.34406767409837
 21
102.8441963317828
 31
0.0
  0
LINE
  5
341
330
1F
100
AcDbEntity
  8
0
  6
CONTINUOUS
 62
     7
100
AcDbLine
 10
-7.3778768049433
 20
102.0441963317827
 30
0.0
 11
-15.44406767409828
 21
102.0441963317827
 31
0.0
  0
LINE
  5
342
330
1F
100
AcDbEntity
  8
0
  6
CONTINUOUS
 62
     7
100
AcDbLine
 10
-12.84406767409837
 20
104.6441963317826
 30
0.0
 11
-12.84406767409837
 21
104.3441963317828
 31
0.0
  0
LINE
  5
343
330
1F
100
AcDbEntity
  8
0
  6
CONTINUOUS
 62
     7
100
AcDbLine
 10
-22.54406811172521
 20
103.0941963317826
 30
0.0
 11
-15.54406767409819
 21
103.0941963317826
 31
0.0
  0
LINE
  5
344
330
1F
100
AcDbEntity
  8
0
  6
CONTINUOUS
 62
     7
100
AcDbLine
 10
-28.74406811172526
 20
102.0441963317827
 30
0.0
 11
-15.44406767409828
 21
102.0441963317827
 31
0.0
  0
LINE
  5
345
330
1F
100
AcDbEntity
  8
0
  6
CONTINUOUS
 62
     7
100
AcDbLine
 10
-15.54406767409819
 20
106.1941963317827
 30
0.0
 11
-22.54406811172521
 21
106.1941963317827
 31
0.0
  0
LINE
  5
346
330
1F
100
AcDbEntity
  8
0
  6
CONTINUOUS
 62
     7
100
AcDbLine
 10
-31.34406811172539
 20
104.6441963317851
 30
0.0
 11
-31.34406811172539
 21
117.9441961816797
 31
0.0
  0
LINE
  5
347
330
1F
100
AcDbEntity
  8
0
  6
CONTINUOUS
 62
     7
100
AcDbLine
 10
-31.34406811172539
 20
120.2941961816796
 30
0.0
 11
-31.34406811172539
 21
143.6441963317826
 31
0.0
  0
LINE
  5
348
330
1F
100
AcDbEntity
  8
0
  6
CONTINUOUS
 62
     7
100
AcDbLine
 10
-31.34406811172539
 20
143.6441963317826
 30
0.0
 11
-31.34406811172539
 21
143.8441963317826
 31
0.0
  0
LINE
  5
349
330
1F
100
AcDbEntity
  8
0
  6
CONTINUOUS
 62
     7
100
AcDbLine
 10
-30.14406811172535
 20
108.8441963317826
 30
0.0
 11
-30.14406811171421
 21
139.5441963317826
 31
0.0
  0
LINE
  5
34A
330
1F
100
AcDbEntity
  8
0
  6
CONTINUOUS
 62
     7
100
AcDbLine
 10
-15.54406767409819
 20
107.3441963317826
 30
0.0
 11
-28.64406811172535
 21
107.3441963317826
 31
0.0
  0
LINE
  5
34B
330
1F
100
AcDbEntity
  8
0
  6
CONTINUOUS
 62
     7
100
AcDbLine
 10
-28.74406811172526
 20
146.4441963317827
 30
0.0
 11
-28.34406811172539
 21
146.4441963317827
 31
0.0
  0
LINE
  5
34C
330
1F
100
AcDbEntity
  8
0
  6
CONTINUOUS
 62
     7
100
AcDbLine
 10
-28.34406811172539
 20
146.4441963317827
 30
0.0
 11
-25.49406845963722
 21
146.4441963317827
 31
0.0
  0
LINE
  5
34D
330
1F
100
AcDbEntity
  8
0
  6
CONTINUOUS
 62
     7
100
AcDbLine
 10
-4.24406845963722
 20
146.4441963317827
 30
0.0
 11
-2.89406814041331
 21
146.4441963317827
 31
0.0
  0
LINE
  5
34E
330
1F
100
AcDbEntity
  8
0
  6
CONTINUOUS
 62
     7
100
AcDbLine
 10
-31.34406811172539
 20
117.9441961816797
 30
0.0
 11
-31.34406811172539
 21
120.2941961816796
 31
0.0
  0
LINE
  5
34F
330
1F
100
AcDbEntity
  8
0
  6
CONTINUOUS
 62
     7
100
AcDbLine
 10
1.30948527886767
 20
110.5244516344071
 30
0.0
 11
-7.02432341434928
 21
102.1906429411895
 31
0.0
  0
LINE
  5
350
330
1F
100
AcDbEntity
  8
0
  6
CONTINUOUS
 62
     7
100
AcDbLine
 10
-28.54406811172521
 20
141.0441963317826
 30
0.0
 11
-28.64406811172535
 21
141.0441963317712
 31
0.0
  0
LINE
  5
351
330
1F
100
AcDbEntity
  8
0
  6
CONTINUOUS
 62
     7
100
AcDbLine
 10
-28.64406811172535
 20
141.0441963317712
 30
0.0
 11
-28.74406811172526
 21
141.0441963317826
 31
0.0
  0
LINE
  5
352
330
1F
100
AcDbEntity
  8
0
  6
CONTINUOUS
 62
     7
100
AcDbLine
 10
-29.9440681117253
 20
138.2441961816796
 30
0.0
 11
-29.9440681117253
 21
137.6441963317826
 31
0.0
  0
LINE
  5
353
330
1F
100
AcDbEntity
  8
0
  6
CONTINUOUS
 62
     7
100
AcDbLine
 10
-29.9440681117253
 20
137.6441963317826
 30
0.0
 11
-29.9440681117253
 21
137.2441963317825
 31
0.0
  0
LINE
  5
354
330
1F
100
AcDbEntity
  8
0
  6
CONTINUOUS
 62
     7
100
AcDbLine
 10
-29.9440681117253
 20
137.2441963317825
 30
0.0
 11
-29.9440681117253
 21
136.1441963317825
 31
0.0
  0
LINE
  5
355
330
1F
100
AcDbEntity
  8
0
  6
CONTINUOUS
 62
     7
100
AcDbLine
 10
-29.9440681117253
 20
139.4441961816797
 30
0.0
 11
-29.9440681117253
 21
138.2441961816796
 31
0.0
  0
LINE
  5
356
330
1F
100
AcDbEntity
  8
0
  6
CONTINUOUS
 62
     7
100
AcDbLine
 10
-29.9440681117253
 20
113.7441961816796
 30
0.0
 11
-29.9440681117253
 21
112.7441961816796
 31
0.0
  0
LINE
  5
357
330
1F
100
AcDbEntity
  8
0
  6
CONTINUOUS
 62
     7
100
AcDbLine
 10
0.5559318882747
 20
123.7441963317825
 30
0.0
 11
0.75593188827474
 21
123.7441963317825
 31
0.0
  0
LINE
  5
358
330
1F
100
AcDbEntity
  8
0
  6
CONTINUOUS
 62
     7
100
AcDbLine
 10
0.75593188827474
 20
123.7441963317825
 30
0.0
 11
1.10593187393079
 21
123.7441963317825
 31
0.0
  0
LINE
  5
359
330
1F
100
AcDbEntity
  8
0
  6
CONTINUOUS
 62
     7
100
AcDbLine
 10
0.75593187393065
 20
123.3941963317825
 30
0.0
 11
0.75593188827474
 21
123.7441963317825
 31
0.0
  0
LINE
  5
35A
330
1F
100
AcDbEntity
  8
0
  6
CONTINUOUS
 62
     7
100
AcDbLine
 10
0.75593188827474
 20
129.1441963317826
 30
0.0
 11
0.5559318882747
 21
129.1441963317826
 31
0.0
  0
LINE
  5
35B
330
1F
100
AcDbEntity
  8
0
  6
CONTINUOUS
 62
     7
100
AcDbLine
 10
1.20593188827479
 20
129.1441963317826
 30
0.0
 11
0.75593188827474
 21
129.1441963317826
 31
0.0
  0
LINE
  5
35C
330
1F
100
AcDbEntity
  8
0
  6
CONTINUOUS
 62
     7
100
AcDbLine
 10
1.10593187393079
 20
123.7441963317825
 30
0.0
 11
1.20593188827479
 21
123.7441963317825
 31
0.0
  0
LINE
  5
35D
330
1F
100
AcDbEntity
  8
0
  6
CONTINUOUS
 62
     7
100
AcDbLine
 10
1.20593188827479
 20
123.7441963317825
 30
0.0
 11
1.20593188827479
 21
129.1441963317826
 31
0.0
  0
LINE
  5
35E
330
1F
100
AcDbEntity
  8
0
  6
CONTINUOUS
 62
     7
100
AcDbLine
 10
1.4559318739307
 20
123.3941963317826
 30
0.0
 11
1.45593185958683
 21
137.0441963325745
 31
0.0
  0
LINE
  5
35F
330
1F
100
AcDbEntity
  8
0
  6
CONTINUOUS
 62
     7
100
AcDbLine
 10
-31.35406811172538
 20
142.7941963317825
 30
0.0
 11
-31.34406811172539
 21
142.7941963317825
 31
0.0
  0
LINE
  5
360
330
1F
100
AcDbEntity
  8
0
  6
CONTINUOUS
 62
     7
100
AcDbLine
 10
-31.35406811172538
 20
142.7941963317825
 30
0.0
 11
-31.35406811172538
 21
107.1941963317827
 31
0.0
  0
LINE
  5
361
330
1F
100
AcDbEntity
  8
0
  6
CONTINUOUS
 62
     7
100
AcDbLine
 10
-31.35406811172538
 20
107.1941963317827
 30
0.0
 11
-31.35406811172538
 21
106.8941963317827
 31
0.0
  0
LINE
  5
362
330
1F
100
AcDbEntity
  8
0
  6
CONTINUOUS
 62
     7
100
AcDbLine
 10
-31.34406811172539
 20
106.8941963317827
 30
0.0
 11
-31.35406811172538
 21
106.8941963317827
 31
0.0
  0
LINE
  5
363
330
1F
100
AcDbEntity
  8
0
  6
CONTINUOUS
 62
     7
100
AcDbLine
 10
-31.34406811172539
 20
117.9441961816797
 30
0.0
 11
-31.34406811172539
 21
120.2941961816796
 31
0.0
  0
LINE
  5
364
330
1F
100
AcDbEntity
  8
0
  6
CONTINUOUS
 62
     7
100
AcDbLine
 10
-31.35406811172538
 20
107.1941963317827
 30
0.0
 11
-31.34406811172539
 21
107.1941963317827
 31
0.0
  0
LINE
  5
365
330
1F
100
AcDbEntity
  8
0
  6
CONTINUOUS
 62
     7
100
AcDbLine
 10
56.45593188827479
 20
102.9441963317827
 30
0.0
 11
56.45593188827479
 21
103.3688914990622
 31
0.0
  0
LINE
  5
366
330
1F
100
AcDbEntity
  8
0
  6
CONTINUOUS
 62
     7
100
AcDbLine
 10
56.45593188827479
 20
123.9441963317827
 30
0.0
 11
56.45593188827479
 21
124.4180331816798
 31
0.0
  0
LINE
  5
367
330
1F
100
AcDbEntity
  8
0
  6
CONTINUOUS
 62
     7
100
AcDbLine
 10
56.45593188827479
 20
124.4180331816798
 30
0.0
 11
56.45593188827479
 21
128.9441963317827
 31
0.0
  0
LINE
  5
368
330
1F
100
AcDbEntity
  8
0
  6
CONTINUOUS
 62
     7
100
AcDbLine
 10
56.45593188827479
 20
139.5441963317827
 30
0.0
 11
56.45593188827479
 21
128.9441963317827
 31
0.0
  0
LINE
  5
369
330
1F
100
AcDbEntity
  8
0
  6
CONTINUOUS
 62
     7
100
AcDbLine
 10
56.45593188827479
 20
119.0941963317828
 30
0.0
 11
56.45593188827479
 21
118.7441963317826
 31
0.0
  0
LINE
  5
36A
330
1F
100
AcDbEntity
  8
0
  6
CONTINUOUS
 62
     7
100
AcDbLine
 10
56.45593188827479
 20
123.7441963317826
 30
0.0
 11
56.45593188827479
 21
123.3941963317827
 31
0.0
  0
LINE
  5
36B
330
1F
100
AcDbEntity
  8
0
  6
CONTINUOUS
 62
     7
100
AcDbLine
 10
56.45593188827479
 20
123.9441963317827
 30
0.0
 11
56.45593188827479
 21
123.7441963317826
 31
0.0
  0
LINE
  5
36C
330
1F
100
AcDbEntity
  8
0
  6
CONTINUOUS
 62
     7
100
AcDbLine
 10
56.45593188827479
 20
110.8780050250005
 30
0.0
 11
56.45593188827479
 21
110.6189952826696
 31
0.0
  0
LINE
  5
36D
330
1F
100
AcDbEntity
  8
0
  6
CONTINUOUS
 62
     7
100
AcDbLine
 10
56.45593188827479
 20
111.6443001153903
 30
0.0
 11
56.45593188827479
 21
110.8780050250005
 31
0.0
  0
LINE
  5
36E
330
1F
100
AcDbEntity
  8
0
  6
CONTINUOUS
 62
     7
100
AcDbLine
 10
56.45593188827479
 20
118.7441963317826
 30
0.0
 11
56.45593188827479
 21
111.6443001153903
 31
0.0
  0
LINE
  5
36F
330
1F
100
AcDbEntity
  8
0
  6
CONTINUOUS
 62
     7
100
AcDbLine
 10
56.45593188827479
 20
104.6441963317827
 30
0.0
 11
56.45593188827479
 21
104.3441963317828
 31
0.0
  0
LINE
  5
370
330
1F
100
AcDbEntity
  8
0
  6
CONTINUOUS
 62
     7
100
AcDbLine
 10
56.45593188827479
 20
104.3441963317828
 30
0.0
 11
56.45593188827479
 21
103.3688914990622
 31
0.0
  0
LINE
  5
371
330
1F
100
AcDbEntity
  8
0
  6
CONTINUOUS
 62
     7
100
AcDbLine
 10
56.45593188827479
 20
109.0441963317827
 30
0.0
 11
56.45593188827479
 21
108.8441963317828
 31
0.0
  0
LINE
  5
372
330
1F
100
AcDbEntity
  8
0
  6
CONTINUOUS
 62
     7
100
AcDbLine
 10
56.45593188827479
 20
108.8441963317828
 30
0.0
 11
56.45593188827479
 21
107.3441963317828
 31
0.0
  0
LINE
  5
373
330
1F
100
AcDbEntity
  8
0
  6
CONTINUOUS
 62
     7
100
AcDbLine
 10
56.45593188827479
 20
110.6189952826696
 30
0.0
 11
56.45593188827479
 21
110.5244516344071
 31
0.0
  0
LINE
  5
374
330
1F
100
AcDbEntity
  8
0
  6
CONTINUOUS
 62
     7
100
AcDbLine
 10
56.45593188827479
 20
110.5244516344071
 30
0.0
 11
56.45593188827479
 21
109.0441963317827
 31
0.0
  0
LINE
  5
375
330
1F
100
AcDbEntity
  8
0
  6
CONTINUOUS
 62
     7
100
AcDbLine
 10
56.45593188827479
 20
107.3441963317828
 30
0.0
 11
56.45593188827479
 21
104.6441963317827
 31
0.0
  0
LINE
  5
376
330
1F
100
AcDbEntity
  8
0
  6
CONTINUOUS
 62
     7
100
AcDbLine
 10
39.45593188827479
 20
123.7441963317826
 30
0.0
 11
39.45593188827479
 21
123.9441963317827
 31
0.0
  0
LINE
  5
377
330
1F
100
AcDbEntity
  8
0
  6
CONTINUOUS
 62
     7
100
AcDbLine
 10
39.45593188827479
 20
123.3941963317827
 30
0.0
 11
39.45593188827479
 21
123.7441963317826
 31
0.0
  0
LINE
  5
378
330
1F
100
AcDbEntity
  8
0
  6
CONTINUOUS
 62
     7
100
AcDbLine
 10
39.45593188827479
 20
110.8780050250005
 30
0.0
 11
39.45593188827479
 21
110.6189952826696
 31
0.0
  0
LINE
  5
379
330
1F
100
AcDbEntity
  8
0
  6
CONTINUOUS
 62
     7
100
AcDbLine
 10
39.45593188827479
 20
111.6443001153903
 30
0.0
 11
39.45593188827479
 21
110.8780050250005
 31
0.0
  0
LINE
  5
37A
330
1F
100
AcDbEntity
  8
0
  6
CONTINUOUS
 62
     7
100
AcDbLine
 10
39.45593188827479
 20
118.7441963317826
 30
0.0
 11
39.45593188827479
 21
119.0941963317828
 31
0.0
  0
LINE
  5
37B
330
1F
100
AcDbEntity
  8
0
  6
CONTINUOUS
 62
     7
100
AcDbLine
 10
39.45593188827479
 20
128.9441963317827
 30
0.0
 11
39.45593188827479
 21
139.5441963317827
 31
0.0
  0
LINE
  5
37C
330
1F
100
AcDbEntity
  8
0
  6
CONTINUOUS
 62
     7
100
AcDbLine
 10
39.45593188827479
 20
123.9441963317827
 30
0.0
 11
39.45593188827479
 21
128.9441963317827
 31
0.0
  0
LINE
  5
37D
330
1F
100
AcDbEntity
  8
0
  6
CONTINUOUS
 62
     7
100
AcDbLine
 10
39.45593188827479
 20
102.9441963317827
 30
0.0
 11
39.45593188827479
 21
103.3688914990622
 31
0.0
  0
LINE
  5
37E
330
1F
100
AcDbEntity
  8
0
  6
CONTINUOUS
 62
     7
100
AcDbLine
 10
39.45593188827479
 20
104.3441963317828
 30
0.0
 11
39.45593188827479
 21
104.6441963317827
 31
0.0
  0
LINE
  5
37F
330
1F
100
AcDbEntity
  8
0
  6
CONTINUOUS
 62
     7
100
AcDbLine
 10
39.45593188827479
 20
108.8441963317828
 30
0.0
 11
39.45593188827479
 21
110.5244516344071
 31
0.0
  0
LINE
  5
380
330
1F
100
AcDbEntity
  8
0
  6
CONTINUOUS
 62
     7
100
AcDbLine
 10
39.45593188827479
 20
103.3688914990622
 30
0.0
 11
39.45593188827479
 21
104.3441963317828
 31
0.0
  0
LINE
  5
381
330
1F
100
AcDbEntity
  8
0
  6
CONTINUOUS
 62
     7
100
AcDbLine
 10
39.45593188827479
 20
110.5244516344071
 30
0.0
 11
39.45593188827479
 21
110.6189952826696
 31
0.0
  0
LINE
  5
382
330
1F
100
AcDbEntity
  8
0
  6
CONTINUOUS
 62
     7
100
AcDbLine
 10
39.45593188827479
 20
107.3441963317823
 30
0.0
 11
39.45593188827479
 21
108.8441963317828
 31
0.0
  0
LINE
  5
383
330
1F
100
AcDbEntity
  8
0
  6
CONTINUOUS
 62
     7
100
AcDbLine
 10
39.45593188827479
 20
104.6441963317827
 30
0.0
 11
39.45593188827479
 21
107.3441963317823
 31
0.0
  0
LINE
  5
384
330
1F
100
AcDbEntity
  8
0
  6
CONTINUOUS
 62
     7
100
AcDbLine
 10
39.45593188827479
 20
111.6443001153903
 30
0.0
 11
39.45593188827479
 21
118.7441963317826
 31
0.0
  0
LINE
  5
385
330
1F
100
AcDbEntity
  8
0
  6
CONTINUOUS
 62
     7
100
AcDbLine
 10
39.25593188827475
 20
102.0441963317827
 30
0.0
 11
39.45593188827479
 21
102.0441963317828
 31
0.0
  0
LINE
  5
386
330
1F
100
AcDbEntity
  8
0
  6
CONTINUOUS
 62
     7
100
AcDbLine
 10
39.45593188827479
 20
102.9441963317827
 30
0.0
 11
39.45593188827479
 21
102.0441963317828
 31
0.0
  0
LINE
  5
387
330
1F
100
AcDbEntity
  8
0
  6
CONTINUOUS
 62
     7
100
AcDbLine
 10
39.45593188827479
 20
123.7441963317826
 30
0.0
 11
39.45593188827479
 21
123.9441963317827
 31
0.0
  0
LINE
  5
388
330
1F
100
AcDbEntity
  8
0
  6
CONTINUOUS
 62
     7
100
AcDbLine
 10
39.45593188827479
 20
123.3941963317827
 30
0.0
 11
39.45593188827479
 21
123.7441963317826
 31
0.0
  0
LINE
  5
389
330
1F
100
AcDbEntity
  8
0
  6
CONTINUOUS
 62
     7
100
AcDbLine
 10
39.45593188827479
 20
110.8780050250005
 30
0.0
 11
39.45593188827479
 21
110.6189952826696
 31
0.0
  0
LINE
  5
38A
330
1F
100
AcDbEntity
  8
0
  6
CONTINUOUS
 62
     7
100
AcDbLine
 10
39.45593188827479
 20
111.6443001153903
 30
0.0
 11
39.45593188827479
 21
110.8780050250005
 31
0.0
  0
LINE
  5
38B
330
1F
100
AcDbEntity
  8
0
  6
CONTINUOUS
 62
     7
100
AcDbLine
 10
39.45593188827479
 20
118.7441963317826
 30
0.0
 11
39.45593188827479
 21
119.0941963317828
 31
0.0
  0
LINE
  5
38C
330
1F
100
AcDbEntity
  8
0
  6
CONTINUOUS
 62
     7
100
AcDbLine
 10
39.45593188827479
 20
128.9441963317827
 30
0.0
 11
39.45593188827479
 21
139.5441963317827
 31
0.0
  0
LINE
  5
38D
330
1F
100
AcDbEntity
  8
0
  6
CONTINUOUS
 62
     7
100
AcDbLine
 10
39.45593188827479
 20
123.9441963317827
 30
0.0
 11
39.45593188827479
 21
128.9441963317827
 31
0.0
  0
LINE
  5
38E
330
1F
100
AcDbEntity
  8
0
  6
CONTINUOUS
 62
     7
100
AcDbLine
 10
39.45593188827479
 20
102.9441963317827
 30
0.0
 11
39.45593188827479
 21
103.3688914990622
 31
0.0
  0
LINE
  5
38F
330
1F
100
AcDbEntity
  8
0
  6
CONTINUOUS
 62
     7
100
AcDbLine
 10
39.45593188827479
 20
104.3441963317828
 30
0.0
 11
39.45593188827479
 21
104.6441963317827
 31
0.0
  0
LINE
  5
390
330
1F
100
AcDbEntity
  8
0
  6
CONTINUOUS
 62
     7
100
AcDbLine
 10
39.45593188827479
 20
108.8441963317828
 30
0.0
 11
39.45593188827479
 21
110.5244516344071
 31
0.0
  0
LINE
  5
391
330
1F
100
AcDbEntity
  8
0
  6
CONTINUOUS
 62
     7
100
AcDbLine
 10
39.45593188827479
 20
103.3688914990622
 30
0.0
 11
39.45593188827479
 21
104.3441963317828
 31
0.0
  0
LINE
  5
392
330
1F
100
AcDbEntity
  8
0
  6
CONTINUOUS
 62
     7
100
AcDbLine
 10
39.45593188827479
 20
110.5244516344071
 30
0.0
 11
39.45593188827479
 21
110.6189952826696
 31
0.0
  0
LINE
  5
393
330
1F
100
AcDbEntity
  8
0
  6
CONTINUOUS
 62
     7
100
AcDbLine
 10
39.45593188827479
 20
107.3441963317823
 30
0.0
 11
39.45593188827479
 21
108.8441963317828
 31
0.0
  0
LINE
  5
394
330
1F
100
AcDbEntity
  8
0
  6
CONTINUOUS
 62
     7
100
AcDbLine
 10
39.45593188827479
 20
104.6441963317827
 30
0.0
 11
39.45593188827479
 21
107.3441963317823
 31
0.0
  0
LINE
  5
395
330
1F
100
AcDbEntity
  8
0
  6
CONTINUOUS
 62
     7
100
AcDbLine
 10
39.25593188827475
 20
107.3441963317828
 30
0.0
 11
39.25593188827475
 21
102.0441963317827
 31
0.0
  0
LINE
  5
396
330
1F
100
AcDbEntity
  8
0
  6
CONTINUOUS
 62
     7
100
AcDbLine
 10
56.65593188827461
 20
118.7441963317826
 30
0.0
 11
56.65593188827461
 21
123.7441963317826
 31
0.0
  0
LINE
  5
397
330
1F
100
AcDbEntity
  8
0
  6
CONTINUOUS
 62
     7
100
AcDbLine
 10
56.45593188827479
 20
123.7441963317826
 30
0.0
 11
56.65593188827461
 21
123.7441963317826
 31
0.0
  0
LINE
  5
398
330
1F
100
AcDbEntity
  8
0
  6
CONTINUOUS
 62
     7
100
AcDbLine
 10
39.45593188827479
 20
107.3441963317823
 30
0.0
 11
39.25593188827475
 21
107.3441963317828
 31
0.0
  0
LINE
  5
399
330
1F
100
AcDbEntity
  8
0
  6
CONTINUOUS
 62
     7
100
AcDbLine
 10
39.25593188827475
 20
123.7441963317826
 30
0.0
 11
39.25593188827475
 21
118.7441963317826
 31
0.0
  0
LINE
  5
39A
330
1F
100
AcDbEntity
  8
0
  6
CONTINUOUS
 62
     7
100
AcDbLine
 10
39.25593188827475
 20
118.7441963317826
 30
0.0
 11
39.45593188827479
 21
118.7441963317826
 31
0.0
  0
LINE
  5
39B
330
1F
100
AcDbEntity
  8
0
  6
CONTINUOUS
 62
     7
100
AcDbLine
 10
39.45593188827479
 20
111.6443001153903
 30
0.0
 11
39.45593188827479
 21
118.7441963317826
 31
0.0
  0
LINE
  5
39C
330
1F
100
AcDbEntity
  8
0
  6
CONTINUOUS
 62
     7
100
AcDbLine
 10
39.25593188827475
 20
123.7441963317826
 30
0.0
 11
39.45593188827479
 21
123.7441963317826
 31
0.0
  0
LINE
  5
39D
330
1F
100
AcDbEntity
  8
0
  6
CONTINUOUS
 62
     7
100
AcDbLine
 10
56.65593188827461
 20
107.3441963317828
 30
0.0
 11
56.65593188827461
 21
102.0441963317827
 31
0.0
  0
LINE
  5
39E
330
1F
100
AcDbEntity
  8
0
  6
CONTINUOUS
 62
     7
100
AcDbLine
 10
56.45593188827479
 20
102.0441963317828
 30
0.0
 11
56.65593188827461
 21
102.0441963317827
 31
0.0
  0
LINE
  5
39F
330
1F
100
AcDbEntity
  8
0
  6
CONTINUOUS
 62
     7
100
AcDbLine
 10
56.45593188827479
 20
118.7441963317826
 30
0.0
 11
56.65593188827461
 21
118.7441963317826
 31
0.0
  0
LINE
  5
3A0
330
1F
100
AcDbEntity
  8
0
  6
CONTINUOUS
 62
     7
100
AcDbLine
 10
56.45593188827479
 20
107.3441963317828
 30
0.0
 11
56.65593188827461
 21
107.3441963317828
 31
0.0
  0
LINE
  5
3A1
330
1F
100
AcDbEntity
  8
0
  6
CONTINUOUS
 62
     7
100
AcDbLine
 10
56.45593188827479
 20
102.9441963317827
 30
0.0
 11
56.45593188827479
 21
102.0441963317828
 31
0.0
  0
LINE
  5
3A2
330
1F
100
AcDbEntity
  8
0
  6
CONTINUOUS
 62
     7
100
AcDbLine
 10
56.45593188827479
 20
102.9441963317827
 30
0.0
 11
56.45593188827479
 21
103.3688914990622
 31
0.0
  0
LINE
  5
3A3
330
1F
100
AcDbEntity
  8
0
  6
CONTINUOUS
 62
     7
100
AcDbLine
 10
56.45593188827479
 20
123.9441963317827
 30
0.0
 11
56.45593188827479
 21
124.4180331816798
 31
0.0
  0
LINE
  5
3A4
330
1F
100
AcDbEntity
  8
0
  6
CONTINUOUS
 62
     7
100
AcDbLine
 10
56.45593188827479
 20
124.4180331816798
 30
0.0
 11
56.45593188827479
 21
128.9441963317827
 31
0.0
  0
LINE
  5
3A5
330
1F
100
AcDbEntity
  8
0
  6
CONTINUOUS
 62
     7
100
AcDbLine
 10
56.45593188827479
 20
139.5441963317827
 30
0.0
 11
56.45593188827479
 21
128.9441963317827
 31
0.0
  0
LINE
  5
3A6
330
1F
100
AcDbEntity
  8
0
  6
CONTINUOUS
 62
     7
100
AcDbLine
 10
56.45593188827479
 20
119.0941963317828
 30
0.0
 11
56.45593188827479
 21
118.7441963317826
 31
0.0
  0
LINE
  5
3A7
330
1F
100
AcDbEntity
  8
0
  6
CONTINUOUS
 62
     7
100
AcDbLine
 10
56.45593188827479
 20
123.7441963317826
 30
0.0
 11
56.45593188827479
 21
123.3941963317827
 31
0.0
  0
LINE
  5
3A8
330
1F
100
AcDbEntity
  8
0
  6
CONTINUOUS
 62
     7
100
AcDbLine
 10
56.45593188827479
 20
123.9441963317827
 30
0.0
 11
56.45593188827479
 21
123.7441963317826
 31
0.0
  0
LINE
  5
3A9
330
1F
100
AcDbEntity
  8
0
  6
CONTINUOUS
 62
     7
100
AcDbLine
 10
56.45593188827479
 20
110.8780050250005
 30
0.0
 11
56.45593188827479
 21
110.6189952826696
 31
0.0
  0
LINE
  5
3AA
330
1F
100
AcDbEntity
  8
0
  6
CONTINUOUS
 62
     7
100
AcDbLine
 10
56.45593188827479
 20
111.6443001153903
 30
0.0
 11
56.45593188827479
 21
110.8780050250005
 31
0.0
  0
LINE
  5
3AB
330
1F
100
AcDbEntity
  8
0
  6
CONTINUOUS
 62
     7
100
AcDbLine
 10
56.45593188827479
 20
118.7441963317826
 30
0.0
 11
56.45593188827479
 21
111.6443001153903
 31
0.0
  0
LINE
  5
3AC
330
1F
100
AcDbEntity
  8
0
  6
CONTINUOUS
 62
     7
100
AcDbLine
 10
56.45593188827479
 20
104.6441963317827
 30
0.0
 11
56.45593188827479
 21
104.3441963317828
 31
0.0
  0
LINE
  5
3AD
330
1F
100
AcDbEntity
  8
0
  6
CONTINUOUS
 62
     7
100
AcDbLine
 10
56.45593188827479
 20
104.3441963317828
 30
0.0
 11
56.45593188827479
 21
103.3688914990622
 31
0.0
  0
LINE
  5
3AE
330
1F
100
AcDbEntity
  8
0
  6
CONTINUOUS
 62
     7
100
AcDbLine
 10
56.45593188827479
 20
109.0441963317827
 30
0.0
 11
56.45593188827479
 21
108.8441963317828
 31
0.0
  0
LINE
  5
3AF
330
1F
100
AcDbEntity
  8
0
  6
CONTINUOUS
 62
     7
100
AcDbLine
 10
56.45593188827479
 20
108.8441963317828
 30
0.0
 11
56.45593188827479
 21
107.3441963317828
 31
0.0
  0
LINE
  5
3B0
330
1F
100
AcDbEntity
  8
0
  6
CONTINUOUS
 62
     7
100
AcDbLine
 10
56.45593188827479
 20
110.6189952826696
 30
0.0
 11
56.45593188827479
 21
110.5244516344071
 31
0.0
  0
LINE
  5
3B1
330
1F
100
AcDbEntity
  8
0
  6
CONTINUOUS
 62
     7
100
AcDbLine
 10
56.45593188827479
 20
110.5244516344071
 30
0.0
 11
56.45593188827479
 21
109.0441963317827
 31
0.0
  0
LINE
  5
3B2
330
1F
100
AcDbEntity
  8
0
  6
CONTINUOUS
 62
     7
100
AcDbLine
 10
56.45593188827479
 20
107.3441963317828
 30
0.0
 11
56.45593188827479
 21
104.6441963317827
 31
0.0
  0
LINE
  5
3B3
330
1F
100
AcDbEntity
  8
0
  6
CONTINUOUS
 62
     7
100
AcDbLine
 10
-72.29406811172521
 20
102.0441963317828
 30
0.0
 11
-72.29406811172521
 21
97.22226619235106
 31
0.0
  0
LINE
  5
3B4
330
1F
100
AcDbEntity
  8
0
  6
CONTINUOUS
 62
     7
100
AcDbLine
 10
-76.79406811172521
 20
102.0441963317828
 30
0.0
 11
-76.79406811172521
 21
97.22226619235106
 31
0.0
  0
LINE
  5
3B5
330
1F
100
AcDbEntity
  8
0
  6
CONTINUOUS
 62
     7
100
AcDbLine
 10
-6.87792846022126
 20
102.3270389138263
 30
0.0
 11
-6.59508574774736
 21
102.609881626301
 31
0.0
  0
LINE
  5
3B6
330
1F
100
AcDbEntity
  8
0
  6
CONTINUOUS
 62
     7
100
AcDbLine
 10
-5.60513592713232
 20
103.5998307930082
 30
0.0
 11
-5.71120227126335
 21
103.4937651027842
 31
0.0
  0
LINE
  5
3B7
330
1F
100
AcDbEntity
  8
0
  6
CONTINUOUS
 62
     7
100
AcDbLine
 10
-0.08970303387628
 20
109.1152636862632
 30
0.0
 11
-1.50391659625029
 21
107.7010501238901
 31
0.0
  0
LINE
  5
3B8
330
1F
100
AcDbEntity
  8
0
  6
CONTINUOUS
 62
     7
100
AcDbLine
 10
0.0163626563467
 20
109.2213300303952
 30
0.0
 11
-0.08970303387628
 21
109.1152636862632
 31
0.0
  0
LINE
  5
3B9
330
1F
100
AcDbEntity
  8
0
  6
CONTINUOUS
 62
     7
100
AcDbLine
 10
-1.50391659625029
 20
107.7010501238901
 30
0.0
 11
-4.19092236475831
 21
105.0140443553812
 31
0.0
  0
LINE
  5
3BA
330
1F
100
AcDbEntity
  8
0
  6
CONTINUOUS
 62
     7
100
AcDbLine
 10
0.90024613283072
 20
110.1052135068784
 30
0.0
 11
0.0163626563467
 21
109.2213300303952
 31
0.0
  0
LINE
  5
3BB
330
1F
100
AcDbEntity
  8
0
  6
CONTINUOUS
 62
     7
100
AcDbLine
 10
-5.71120227126335
 20
103.4937651027842
 30
0.0
 11
-6.59508574774736
 21
102.609881626301
 31
0.0
  0
LINE
  5
3BC
330
1F
100
AcDbEntity
  8
0
  6
CONTINUOUS
 62
     7
100
AcDbLine
 10
0.90024613283072
 20
110.1052135068784
 30
0.0
 11
1.18308884530461
 21
110.3880562193531
 31
0.0
  0
LINE
  5
3BD
330
1F
100
AcDbEntity
  8
0
  6
CONTINUOUS
 62
     7
100
AcDbLine
 10
-4.19092236475831
 20
105.0140443553812
 30
0.0
 11
-5.60513592713232
 21
103.5998307930082
 31
0.0
  0
LINE
  5
3BE
330
1F
100
AcDbEntity
  8
0
  6
CONTINUOUS
 62
     7
100
AcDbLine
 10
1.31948527886766
 20
110.5244519990082
 30
0.0
 11
1.18308884530461
 21
110.3880562193531
 31
0.0
  0
LINE
  5
3BF
330
1F
100
AcDbEntity
  8
0
  6
CONTINUOUS
 62
     7
100
AcDbLine
 10
-7.05280104543431
 20
103.2835365246037
 30
0.0
 11
0.22659206005483
 21
110.5629296300932
 31
0.0
  0
LINE
  5
3C0
330
1F
100
AcDbEntity
  8
0
  6
CONTINUOUS
 62
     7
100
AcDbLine
 10
-6.87792846022126
 20
102.3270389138263
 30
0.0
 11
-6.59508574774736
 21
102.609881626301
 31
0.0
  0
LINE
  5
3C1
330
1F
100
AcDbEntity
  8
0
  6
CONTINUOUS
 62
     7
100
AcDbLine
 10
-6.87792846022126
 20
102.3270389138263
 30
0.0
 11
-7.01432341434929
 21
102.1906433057905
 31
0.0
  0
LINE
  5
3C2
330
1F
100
AcDbEntity
  8
0
  6
CONTINUOUS
 62
     7
100
AcDbLine
 10
-7.12361631539125
 20
103.3543517945602
 30
0.0
 11
-7.05280104543431
 21
103.2835365246037
 31
0.0
  0
LINE
  5
3C3
330
1F
100
AcDbEntity
  8
0
  6
CONTINUOUS
 62
     7
100
AcDbLine
 10
-5.60513592713232
 20
103.5998307930082
 30
0.0
 11
-5.71120227126335
 21
103.4937651027842
 31
0.0
  0
LINE
  5
3C4
330
1F
100
AcDbEntity
  8
0
  6
CONTINUOUS
 62
     7
100
AcDbLine
 10
-0.08970303387628
 20
109.1152636862632
 30
0.0
 11
-1.50391659625029
 21
107.7010501238901
 31
0.0
  0
LINE
  5
3C5
330
1F
100
AcDbEntity
  8
0
  6
CONTINUOUS
 62
     7
100
AcDbLine
 10
0.22659206005483
 20
110.5629296300932
 30
0.0
 11
0.1557767900988
 21
110.6337449000494
 31
0.0
  0
LINE
  5
3C6
330
1F
100
AcDbEntity
  8
0
  6
CONTINUOUS
 62
     7
100
AcDbLine
 10
0.0163626563467
 20
109.2213300303952
 30
0.0
 11
-0.08970303387628
 21
109.1152636862632
 31
0.0
  0
LINE
  5
3C7
330
1F
100
AcDbEntity
  8
0
  6
CONTINUOUS
 62
     7
100
AcDbLine
 10
-1.50391659625029
 20
107.7010501238901
 30
0.0
 11
-4.19092236475831
 21
105.0140443553812
 31
0.0
  0
LINE
  5
3C8
330
1F
100
AcDbEntity
  8
0
  6
CONTINUOUS
 62
     7
100
AcDbLine
 10
0.90024613283072
 20
110.1052135068784
 30
0.0
 11
0.0163626563467
 21
109.2213300303952
 31
0.0
  0
LINE
  5
3C9
330
1F
100
AcDbEntity
  8
0
  6
CONTINUOUS
 62
     7
100
AcDbLine
 10
-5.71120227126335
 20
103.4937651027842
 30
0.0
 11
-6.59508574774736
 21
102.609881626301
 31
0.0
  0
LINE
  5
3CA
330
1F
100
AcDbEntity
  8
0
  6
CONTINUOUS
 62
     7
100
AcDbLine
 10
0.90024613283072
 20
110.1052135068784
 30
0.0
 11
1.18308884530461
 21
110.3880562193531
 31
0.0
  0
LINE
  5
3CB
330
1F
100
AcDbEntity
  8
0
  6
CONTINUOUS
 62
     7
100
AcDbLine
 10
-4.19092236475831
 20
105.0140443553812
 30
0.0
 11
-5.60513592713232
 21
103.5998307930082
 31
0.0
  0
LINE
  5
3CC
330
1F
100
AcDbEntity
  8
0
  6
CONTINUOUS
 62
     7
100
AcDbLine
 10
-4.96873982406328
 20
105.5090191022117
 30
0.0
 11
-1.18571854471634
 21
109.2920403815597
 31
0.0
  0
LINE
  5
3CD
330
1F
100
AcDbEntity
  8
0
  6
CONTINUOUS
 62
     7
100
AcDbLine
 10
-7.10886706261226
 20
103.3688918636632
 30
0.0
 11
-6.10011067396226
 21
104.3776482523132
 31
0.0
  0
LINE
  5
3CE
330
1F
100
AcDbEntity
  8
0
  6
CONTINUOUS
 62
     7
100
AcDbLine
 10
-0.86752049318125
 20
109.6102384330936
 30
0.0
 11
0.14123672099572
 21
110.6189956472706
 31
0.0
  0
LINE
  5
3CF
330
1F
100
AcDbEntity
  8
0
  6
CONTINUOUS
 62
     7
100
AcDbLine
 10
-1.18571854471634
 20
109.2920403815597
 30
0.0
 11
-0.86752049318125
 21
109.6102384330936
 31
0.0
  0
LINE
  5
3D0
330
1F
100
AcDbEntity
  8
0
  6
CONTINUOUS
 62
     7
100
AcDbLine
 10
-6.10011067396226
 20
104.3776482523132
 30
0.0
 11
-4.96873982406328
 21
105.5090191022117
 31
0.0
  0
LINE
  5
3D1
330
1F
100
AcDbEntity
  8
0
  6
CONTINUOUS
 62
     7
100
AcDbLine
 10
-4.96873982406328
 20
105.5090191022117
 30
0.0
 11
-1.18571854471634
 21
109.2920403815597
 31
0.0
  0
LINE
  5
3D2
330
1F
100
AcDbEntity
  8
0
  6
CONTINUOUS
 62
     7
100
AcDbLine
 10
-7.10886706261226
 20
103.3688918636632
 30
0.0
 11
-6.10011067396226
 21
104.3776482523132
 31
0.0
  0
LINE
  5
3D3
330
1F
100
AcDbEntity
  8
0
  6
CONTINUOUS
 62
     7
100
AcDbLine
 10
-0.86752049318125
 20
109.6102384330936
 30
0.0
 11
0.14123672099572
 21
110.6189956472706
 31
0.0
  0
LINE
  5
3D4
330
1F
100
AcDbEntity
  8
0
  6
CONTINUOUS
 62
     7
100
AcDbLine
 10
-1.18571854471634
 20
109.2920403815597
 30
0.0
 11
-0.86752049318125
 21
109.6102384330936
 31
0.0
  0
LINE
  5
3D5
330
1F
100
AcDbEntity
  8
0
  6
CONTINUOUS
 62
     7
100
AcDbLine
 10
-6.10011067396226
 20
104.3776482523132
 30
0.0
 11
-4.96873982406328
 21
105.5090191022117
 31
0.0
  0
LINE
  5
3D6
330
1F
100
AcDbEntity
  8
1
  6
CONTINUOUS
 62
     7
100
AcDbLine
 10
-21.10406860292937
 20
202.6810227958587
 30
0.0
 11
-8.65406860292933
 21
202.6810227958587
 31
0.0
  0
LINE
  5
3D7
330
1F
100
AcDbEntity
  8
0
  6
CONTINUOUS
 62
     7
100
AcDbLine
 10
-21.10406860292937
 20
202.6810227958587
 30
0.0
 11
-21.10406860292937
 21
196.2810227958586
 31
0.0
  0
LINE
  5
3D8
330
1F
100
AcDbEntity
  8
0
  6
CONTINUOUS
 62
     7
100
AcDbLine
 10
-8.65406860292933
 20
202.6810227958587
 30
0.0
 11
-8.65406860292933
 21
203.6810227958586
 31
0.0
  0
LINE
  5
3D9
330
1F
100
AcDbEntity
  8
1
  6
CONTINUOUS
 62
     7
100
AcDbLine
 10
-21.10406860292937
 20
196.2810227958586
 30
0.0
 11
-8.65406860292933
 21
196.2810227958586
 31
0.0
  0
LINE
  5
3DA
330
1F
100
AcDbEntity
  8
0
  6
CONTINUOUS
 62
     7
100
AcDbLine
 10
-8.65406860292933
 20
196.2810227958586
 30
0.0
 11
-8.65406860292933
 21
202.6810227958587
 31
0.0
  0
LINE
  5
3DB
330
1F
100
AcDbEntity
  8
0
  6
CONTINUOUS
 62
     7
100
AcDbLine
 10
-21.10406860292937
 20
196.2810227958586
 30
0.0
 11
-21.10406860292937
 21
195.2810227958586
 31
0.0
  0
LINE
  5
3DC
330
1F
100
AcDbEntity
  8
1
  6
CONTINUOUS
 62
     7
100
AcDbLine
 10
41.41404690204467
 20
67.2609024078904
 30
0.0
 11
44.04658953923263
 21
64.6283597707013
 31
0.0
  0
LINE
  5
3DD
330
1F
100
AcDbEntity
  8
0
  6
CONTINUOUS
 62
     7
100
AcDbLine
 10
3.40298885499169
 20
96.91515838879826
 30
0.0
 11
21.83995134355382
 21
78.4781959002364
 31
0.0
  0
LINE
  5
3DE
330
1F
100
AcDbEntity
  8
0
  6
CONTINUOUS
 62
     7
100
AcDbLine
 10
6.60120509455578
 20
100.0809031799154
 30
0.0
 11
25.02193185889269
 21
81.6601764155764
 31
0.0
  0
LINE
  5
3DF
330
1F
100
AcDbEntity
  8
0
  6
CONTINUOUS
 62
     7
100
AcDbLine
 10
1.20844405393268
 20
106.4636137141993
 30
0.0
 11
0.7134693071016
 21
105.9686389673684
 31
0.0
  0
LINE
  5
3E0
330
1F
100
AcDbEntity
  8
0
  6
CONTINUOUS
 62
     7
100
AcDbLine
 10
0.7134693071016
 20
105.9686389673684
 30
0.0
 11
-2.46851120823726
 21
102.7866584520284
 31
0.0
  0
LINE
  5
3E1
330
1F
100
AcDbEntity
  8
0
  6
CONTINUOUS
 62
     7
100
AcDbLine
 10
25.02193185889269
 20
81.6601764155764
 30
0.0
 11
21.83995134355382
 21
78.4781959002364
 31
0.0
  0
LINE
  5
3E2
330
1F
100
AcDbEntity
  8
0
  6
CONTINUOUS
 62
     7
100
AcDbLine
 10
-2.46851120823726
 20
102.7866584520284
 30
0.0
 11
-2.9634859550672
 21
102.2916837051983
 31
0.0
  0
LINE
  5
3E3
330
1F
100
AcDbEntity
  8
0
  6
CONTINUOUS
 62
     7
100
AcDbLine
 10
-2.46851120823726
 20
102.7866584520284
 30
0.0
 11
3.04943546439881
 21
97.26871177939226
 31
0.0
  0
LINE
  5
3E4
330
1F
100
AcDbEntity
  8
0
  6
CONTINUOUS
 62
     7
100
AcDbLine
 10
0.7134693071016
 20
105.9686389673684
 30
0.0
 11
6.24765170396176
 21
100.4344565705074
 31
0.0
  0
LINE
  5
3E5
330
1F
100
AcDbEntity
  8
1
  6
CONTINUOUS
 62
     7
100
AcDbLine
 10
25.71514498885267
 20
82.3533895455364
 30
0.0
 11
22.08129885414678
 21
78.7195434108293
 31
0.0
  0
LINE
  5
3E6
330
1F
100
AcDbEntity
  8
1
  6
CONTINUOUS
 62
     7
100
AcDbLine
 10
38.05937500157074
 20
58.64114523303829
 30
0.0
 11
37.20405863904671
 21
57.78582887051539
 31
0.0
  0
LINE
  5
3E7
330
1F
100
AcDbEntity
  8
1
  6
CONTINUOUS
 62
     7
100
AcDbLine
 10
35.42683236438165
 20
61.27368787022729
 30
0.0
 11
34.57151600185875
 21
60.41837150770331
 31
0.0
  0
LINE
  5
3E8
330
1F
100
AcDbEntity
  8
1
  6
CONTINUOUS
 62
     7
100
AcDbLine
 10
35.42683236438165
 20
61.27368787022729
 30
0.0
 11
38.05937500157074
 21
58.64114523303829
 31
0.0
  0
LINE
  5
3E9
330
1F
100
AcDbEntity
  8
1
  6
CONTINUOUS
 62
     7
100
AcDbLine
 10
38.91469136409364
 20
59.49646159556141
 30
0.0
 11
38.48703318283174
 21
59.06880341430039
 31
0.0
  0
LINE
  5
3EA
330
1F
100
AcDbEntity
  8
1
  6
CONTINUOUS
 62
     7
100
AcDbLine
 10
36.28214872690569
 20
62.12900423274931
 30
0.0
 11
35.85449054564379
 21
61.70134605148829
 31
0.0
  0
LINE
  5
3EB
330
1F
100
AcDbEntity
  8
1
  6
CONTINUOUS
 62
     7
100
AcDbLine
 10
36.28214872690569
 20
62.12900423274931
 30
0.0
 11
38.91469136409364
 21
59.49646159556141
 31
0.0
  0
LINE
  5
3EC
330
1F
100
AcDbEntity
  8
1
  6
CONTINUOUS
 62
     7
100
AcDbLine
 10
39.77000772661677
 20
60.3517779580863
 30
0.0
 11
38.91469136409364
 21
59.49646159556141
 31
0.0
  0
LINE
  5
3ED
330
1F
100
AcDbEntity
  8
1
  6
CONTINUOUS
 62
     7
100
AcDbLine
 10
37.13746508942882
 20
62.9843205952734
 30
0.0
 11
36.28214872690569
 21
62.12900423274931
 31
0.0
  0
LINE
  5
3EE
330
1F
100
AcDbEntity
  8
1
  6
CONTINUOUS
 62
     7
100
AcDbLine
 10
37.13746508942882
 20
62.9843205952734
 30
0.0
 11
39.77000772661677
 21
60.3517779580863
 31
0.0
  0
LINE
  5
3EF
330
1F
100
AcDbEntity
  8
1
  6
CONTINUOUS
 62
     7
100
AcDbLine
 10
40.62532408913967
 20
61.20709432060829
 30
0.0
 11
39.77000772661677
 21
60.3517779580863
 31
0.0
  0
LINE
  5
3F0
330
1F
100
AcDbEntity
  8
1
  6
CONTINUOUS
 62
     7
100
AcDbLine
 10
37.99278145195171
 20
63.8396369577963
 30
0.0
 11
37.13746508942882
 21
62.9843205952734
 31
0.0
  0
LINE
  5
3F1
330
1F
100
AcDbEntity
  8
1
  6
CONTINUOUS
 62
     7
100
AcDbLine
 10
37.99278145195171
 20
63.8396369577963
 30
0.0
 11
40.62532408913967
 21
61.20709432060829
 31
0.0
  0
LINE
  5
3F2
330
1F
100
AcDbEntity
  8
1
  6
CONTINUOUS
 62
     7
100
AcDbLine
 10
41.4806404516637
 20
62.06241068313241
 30
0.0
 11
40.62532408913967
 21
61.20709432060829
 31
0.0
  0
LINE
  5
3F3
330
1F
100
AcDbEntity
  8
1
  6
CONTINUOUS
 62
     7
100
AcDbLine
 10
38.84809781447461
 20
64.6949533203203
 30
0.0
 11
37.99278145195171
 21
63.8396369577963
 31
0.0
  0
LINE
  5
3F4
330
1F
100
AcDbEntity
  8
1
  6
CONTINUOUS
 62
     7
100
AcDbLine
 10
38.84809781447461
 20
64.6949533203203
 30
0.0
 11
41.4806404516637
 21
62.06241068313241
 31
0.0
  0
LINE
  5
3F5
330
1F
100
AcDbEntity
  8
1
  6
CONTINUOUS
 62
     7
100
AcDbLine
 10
42.33595681418683
 20
62.9177270456552
 30
0.0
 11
41.4806404516637
 21
62.06241068313241
 31
0.0
  0
LINE
  5
3F6
330
1F
100
AcDbEntity
  8
1
  6
CONTINUOUS
 62
     7
100
AcDbLine
 10
39.70341417699865
 20
65.5502696828443
 30
0.0
 11
38.84809781447461
 21
64.6949533203203
 31
0.0
  0
LINE
  5
3F7
330
1F
100
AcDbEntity
  8
1
  6
CONTINUOUS
 62
     7
100
AcDbLine
 10
39.70341417699865
 20
65.5502696828443
 30
0.0
 11
42.33595681418683
 21
62.9177270456552
 31
0.0
  0
LINE
  5
3F8
330
1F
100
AcDbEntity
  8
1
  6
CONTINUOUS
 62
     7
100
AcDbLine
 10
43.19127317670973
 20
63.7730434081784
 30
0.0
 11
42.33595681418683
 21
62.9177270456552
 31
0.0
  0
LINE
  5
3F9
330
1F
100
AcDbEntity
  8
1
  6
CONTINUOUS
 62
     7
100
AcDbLine
 10
40.55873053952178
 20
66.4055860453663
 30
0.0
 11
39.70341417699865
 21
65.5502696828443
 31
0.0
  0
LINE
  5
3FA
330
1F
100
AcDbEntity
  8
1
  6
CONTINUOUS
 62
     7
100
AcDbLine
 10
40.55873053952178
 20
66.4055860453663
 30
0.0
 11
43.19127317670973
 21
63.7730434081784
 31
0.0
  0
LINE
  5
3FB
330
1F
100
AcDbEntity
  8
1
  6
CONTINUOUS
 62
     7
100
AcDbLine
 10
44.04658953923263
 20
64.6283597707013
 30
0.0
 11
43.19127317670973
 21
63.7730434081784
 31
0.0
  0
LINE
  5
3FC
330
1F
100
AcDbEntity
  8
1
  6
CONTINUOUS
 62
     7
100
AcDbLine
 10
41.41404690204467
 20
67.2609024078904
 30
0.0
 11
40.55873053952178
 21
66.4055860453663
 31
0.0
  0
LINE
  5
3FD
330
1F
100
AcDbEntity
  8
1
  6
CONTINUOUS
 62
     7
100
AcDbLine
 10
44.90190590175666
 20
65.4836761332253
 30
0.0
 11
44.47424772049476
 21
65.05601795196431
 31
0.0
  0
LINE
  5
3FE
330
1F
100
AcDbEntity
  8
1
  6
CONTINUOUS
 62
     7
100
AcDbLine
 10
42.2693632645678
 20
68.1162187704124
 30
0.0
 11
41.84170508330681
 21
67.68856058915141
 31
0.0
  0
LINE
  5
3FF
330
1F
100
AcDbEntity
  8
1
  6
CONTINUOUS
 62
     7
100
AcDbLine
 10
42.2693632645678
 20
68.1162187704124
 30
0.0
 11
44.90190590175666
 21
65.4836761332253
 31
0.0
  0
LINE
  5
400
330
1F
100
AcDbEntity
  8
1
  6
CONTINUOUS
 62
     7
100
AcDbLine
 10
31.73842523687767
 20
64.1067786352093
 30
0.0
 11
39.43627249958672
 21
71.8046258979172
 31
0.0
  0
LINE
  5
401
330
1F
100
AcDbEntity
  8
1
  6
CONTINUOUS
 62
     7
100
AcDbLine
 10
38.34369466663861
 20
72.0418873683434
 30
0.0
 11
31.50116376645269
 21
65.1993564681563
 31
0.0
  0
LINE
  5
402
330
1F
100
AcDbEntity
  8
1
  6
CONTINUOUS
 62
     7
100
AcDbLine
 10
28.74481796804571
 20
67.9557022665633
 30
0.0
 11
35.58734886823163
 21
74.79823316675031
 31
0.0
  0
LINE
  5
403
330
1F
100
AcDbEntity
  8
1
  6
CONTINUOUS
 62
     7
100
AcDbLine
 10
33.97957750796763
 20
75.5506881644903
 30
0.0
 11
27.99236297030461
 21
69.5634736268273
 31
0.0
  0
LINE
  5
404
330
1F
100
AcDbEntity
  8
1
  6
CONTINUOUS
 62
     7
100
AcDbLine
 10
41.57456340589465
 20
55.12595682871429
 30
0.0
 11
42.42987976841778
 21
55.12595682871429
 31
0.0
  0
LINE
  5
405
330
1F
100
AcDbEntity
  8
1
  6
CONTINUOUS
 62
     7
100
AcDbLine
 10
38.48703318283174
 20
58.21348705177729
 30
0.0
 11
41.57456340589465
 21
55.12595682871429
 31
0.0
  0
LINE
  5
406
330
1F
100
AcDbEntity
  8
1
  6
CONTINUOUS
 62
     7
100
AcDbLine
 10
38.48703318283174
 20
59.06880341430039
 30
0.0
 11
38.48703318283174
 21
58.21348705177729
 31
0.0
  0
LINE
  5
407
330
1F
100
AcDbEntity
  8
1
  6
CONTINUOUS
 62
     7
100
AcDbLine
 10
48.41709430607966
 20
61.9684877289003
 30
0.0
 11
48.4170943060808
 21
61.1131713663774
 31
0.0
  0
LINE
  5
408
330
1F
100
AcDbEntity
  8
1
  6
CONTINUOUS
 62
     7
100
AcDbLine
 10
45.32956408301766
 20
65.05601795196431
 30
0.0
 11
48.41709430607966
 21
61.9684877289003
 31
0.0
  0
LINE
  5
409
330
1F
100
AcDbEntity
  8
1
  6
CONTINUOUS
 62
     7
100
AcDbLine
 10
44.47424772049476
 20
65.05601795196431
 30
0.0
 11
45.32956408301766
 21
65.05601795196431
 31
0.0
  0
LINE
  5
40A
330
1F
100
AcDbEntity
  8
1
  6
CONTINUOUS
 62
     7
100
AcDbLine
 10
42.85753794967877
 20
54.69829864745341
 30
0.0
 11
42.42987976841778
 21
55.12595682871429
 31
0.0
  0
LINE
  5
40B
330
1F
100
AcDbEntity
  8
1
  6
CONTINUOUS
 62
     7
100
AcDbLine
 10
48.84475248734179
 20
60.68551318511641
 30
0.0
 11
42.85753794967877
 21
54.69829864745341
 31
0.0
  0
LINE
  5
40C
330
1F
100
AcDbEntity
  8
1
  6
CONTINUOUS
 62
     7
100
AcDbLine
 10
48.4170943060808
 20
61.1131713663774
 30
0.0
 11
48.84475248734179
 21
60.68551318511641
 31
0.0
  0
LINE
  5
40D
330
1F
100
AcDbEntity
  8
1
  6
CONTINUOUS
 62
     7
100
AcDbLine
 10
38.48703318283174
 20
59.06880341430039
 30
0.0
 11
38.05937500157074
 21
58.64114523303829
 31
0.0
  0
LINE
  5
40E
330
1F
100
AcDbEntity
  8
1
  6
CONTINUOUS
 62
     7
100
AcDbLine
 10
42.42987976841778
 20
55.12595682871429
 30
0.0
 11
38.48703318283174
 21
59.06880341430039
 31
0.0
  0
LINE
  5
40F
330
1F
100
AcDbEntity
  8
1
  6
CONTINUOUS
 62
     7
100
AcDbLine
 10
48.4170943060808
 20
61.1131713663774
 30
0.0
 11
42.42987976841778
 21
55.12595682871429
 31
0.0
  0
LINE
  5
410
330
1F
100
AcDbEntity
  8
1
  6
CONTINUOUS
 62
     7
100
AcDbLine
 10
44.47424772049476
 20
65.05601795196431
 30
0.0
 11
44.04658953923263
 21
64.6283597707013
 31
0.0
  0
LINE
  5
411
330
1F
100
AcDbEntity
  8
1
  6
CONTINUOUS
 62
     7
100
AcDbLine
 10
44.47424772049476
 20
65.05601795196431
 30
0.0
 11
48.4170943060808
 21
61.1131713663774
 31
0.0
  0
LINE
  5
412
330
1F
100
AcDbEntity
  8
1
  6
CONTINUOUS
 62
     7
100
AcDbLine
 10
35.85449054564379
 20
61.70134605148829
 30
0.0
 11
35.42683236438165
 21
61.27368787022729
 31
0.0
  0
LINE
  5
413
330
1F
100
AcDbEntity
  8
1
  6
CONTINUOUS
 62
     7
100
AcDbLine
 10
35.42683236438165
 20
62.12900423275019
 30
0.0
 11
41.41404690204467
 21
68.1162187704133
 31
0.0
  0
LINE
  5
414
330
1F
100
AcDbEntity
  8
1
  6
CONTINUOUS
 62
     7
100
AcDbLine
 10
35.42683236438165
 20
62.12900423275019
 30
0.0
 11
35.85449054564379
 21
61.70134605148829
 31
0.0
  0
LINE
  5
415
330
1F
100
AcDbEntity
  8
1
  6
CONTINUOUS
 62
     7
100
AcDbLine
 10
41.84170508330681
 20
67.68856058915141
 30
0.0
 11
41.41404690204467
 21
67.2609024078904
 31
0.0
  0
LINE
  5
416
330
1F
100
AcDbEntity
  8
1
  6
CONTINUOUS
 62
     7
100
AcDbLine
 10
41.41404690204467
 20
68.1162187704133
 30
0.0
 11
42.2693632645678
 21
68.9715351329373
 31
0.0
  0
LINE
  5
417
330
1F
100
AcDbEntity
  8
1
  6
CONTINUOUS
 62
     7
100
AcDbLine
 10
41.41404690204467
 20
68.1162187704133
 30
0.0
 11
41.84170508330681
 21
67.68856058915141
 31
0.0
  0
LINE
  5
418
330
1F
100
AcDbEntity
  8
1
  6
CONTINUOUS
 62
     7
100
AcDbLine
 10
37.20405863904671
 20
57.78582887051539
 30
0.0
 11
34.57151600185875
 21
60.41837150770331
 31
0.0
  0
LINE
  5
419
330
1F
100
AcDbEntity
  8
1
  6
CONTINUOUS
 62
     7
100
AcDbLine
 10
45.75722226427979
 20
66.3389924957493
 30
0.0
 11
44.90190590175666
 21
65.4836761332253
 31
0.0
  0
LINE
  5
41A
330
1F
100
AcDbEntity
  8
1
  6
CONTINUOUS
 62
     7
100
AcDbLine
 10
43.12467962709161
 20
68.9715351329373
 30
0.0
 11
45.75722226427979
 21
66.3389924957493
 31
0.0
  0
LINE
  5
41B
330
1F
100
AcDbEntity
  8
1
  6
CONTINUOUS
 62
     7
100
AcDbLine
 10
43.12467962709161
 20
68.9715351329373
 30
0.0
 11
42.2693632645678
 21
68.1162187704124
 31
0.0
  0
LINE
  5
41C
330
1F
100
AcDbEntity
  8
1
  6
CONTINUOUS
 62
     7
100
AcDbLine
 10
34.57151600185875
 20
61.27368787022729
 30
0.0
 11
35.42683236438165
 21
62.12900423275019
 31
0.0
  0
LINE
  5
41D
330
1F
100
AcDbEntity
  8
1
  6
CONTINUOUS
 62
     7
100
AcDbLine
 10
31.73842523687767
 20
64.1067786352093
 30
0.0
 11
34.57151600185875
 21
61.27368787022729
 31
0.0
  0
LINE
  5
41E
330
1F
100
AcDbEntity
  8
1
  6
CONTINUOUS
 62
     7
100
AcDbLine
 10
31.50116376645269
 20
65.1993564681563
 30
0.0
 11
31.73842523687767
 21
64.1067786352093
 31
0.0
  0
LINE
  5
41F
330
1F
100
AcDbEntity
  8
1
  6
CONTINUOUS
 62
     7
100
AcDbLine
 10
28.74481796804571
 20
67.9557022665633
 30
0.0
 11
31.50116376645269
 21
65.1993564681563
 31
0.0
  0
LINE
  5
420
330
1F
100
AcDbEntity
  8
1
  6
CONTINUOUS
 62
     7
100
AcDbLine
 10
27.99236297030461
 20
69.5634736268273
 30
0.0
 11
28.74481796804571
 21
67.9557022665633
 31
0.0
  0
LINE
  5
421
330
1F
100
AcDbEntity
  8
1
  6
CONTINUOUS
 62
     7
100
AcDbLine
 10
39.43627249958672
 20
71.8046258979172
 30
0.0
 11
42.2693632645678
 21
68.9715351329373
 31
0.0
  0
LINE
  5
422
330
1F
100
AcDbEntity
  8
1
  6
CONTINUOUS
 62
     7
100
AcDbLine
 10
38.34369466663861
 20
72.0418873683434
 30
0.0
 11
39.43627249958672
 21
71.8046258979172
 31
0.0
  0
LINE
  5
423
330
1F
100
AcDbEntity
  8
1
  6
CONTINUOUS
 62
     7
100
AcDbLine
 10
35.58734886823163
 20
74.79823316675031
 30
0.0
 11
38.34369466663861
 21
72.0418873683434
 31
0.0
  0
LINE
  5
424
330
1F
100
AcDbEntity
  8
1
  6
CONTINUOUS
 62
     7
100
AcDbLine
 10
33.97957750796763
 20
75.5506881644903
 30
0.0
 11
35.58734886823163
 21
74.79823316675031
 31
0.0
  0
LINE
  5
425
330
1F
100
AcDbEntity
  8
1
  6
CONTINUOUS
 62
     7
100
AcDbLine
 10
21.16042934609777
 20
77.2948450846893
 30
0.0
 11
27.99236297030461
 21
69.5634736268273
 31
0.0
  0
LINE
  5
426
330
1F
100
AcDbEntity
  8
1
  6
CONTINUOUS
 62
     7
100
AcDbLine
 10
26.38830325677077
 20
82.5455032819713
 30
0.0
 11
33.97957750796763
 21
75.5506881644903
 31
0.0
  0
LINE
  5
427
330
1F
100
AcDbEntity
  8
1
  6
CONTINUOUS
 62
     7
100
AcDbLine
 10
21.18966158925878
 20
77.8279061459422
 30
0.0
 11
25.8681223065787
 21
82.5063668632613
 31
0.0
  0
LINE
  5
428
330
1F
100
AcDbEntity
  8
1
  6
CONTINUOUS
 62
     7
100
AcDbLine
 10
21.18966158925878
 20
77.8279061459422
 30
0.0
 11
25.71514498885267
 21
82.3533895455364
 31
0.0
  0
LINE
  5
429
330
1F
100
AcDbEntity
  8
1
  6
CONTINUOUS
 62
     7
100
AcDbLine
 10
21.92621837085881
 20
78.5644629275414
 30
0.0
 11
24.93566483158861
 21
81.5739093882723
 31
0.0
  0
LINE
  5
42A
330
1F
100
AcDbEntity
  8
1
  6
CONTINUOUS
 62
     7
100
AcDbLine
 10
24.9373275295477
 20
81.5755720862303
 30
0.0
 11
25.60716778931874
 21
82.2454123460033
 31
0.0
  0
LINE
  5
42B
330
1F
100
AcDbEntity
  8
1
  6
CONTINUOUS
 62
     7
100
AcDbLine
 10
24.02324859946066
 20
80.6614931561444
 30
0.0
 11
24.9373275295477
 21
81.5755720862303
 31
0.0
  0
LINE
  5
42C
330
1F
100
AcDbEntity
  8
1
  6
CONTINUOUS
 62
     7
100
AcDbLine
 10
21.88828308907182
 20
78.5265276457544
 30
0.0
 11
22.83863460298562
 21
79.4768791596693
 31
0.0
  0
LINE
  5
42D
330
1F
100
AcDbEntity
  8
1
  6
CONTINUOUS
 62
     7
100
AcDbLine
 10
21.25471541312868
 20
77.8929599698112
 30
0.0
 11
21.88828308907182
 21
78.5265276457544
 31
0.0
  0
LINE
  5
42E
330
1F
100
AcDbEntity
  8
1
  6
CONTINUOUS
 62
     7
100
AcDbLine
 10
21.90808207894565
 20
78.5463266356294
 30
0.0
 11
24.95712651942176
 21
81.5953710761064
 31
0.0
  0
LINE
  5
42F
330
1F
100
AcDbEntity
  8
0
  6
CONTINUOUS
 62
     7
100
AcDbLine
 10
1.17308871487376
 20
109.8223709248353
 30
0.0
 11
-6.32224316570432
 21
102.3270390442574
 31
0.0
  0
LINE
  5
430
330
1F
100
AcDbEntity
  8
0
  6
CONTINUOUS
 62
     7
100
AcDbLine
 10
1.3973527835858
 20
107.7838932937502
 30
0.0
 11
0.8548906633398
 21
107.2414311735042
 31
0.0
  0
LINE
  5
431
330
1F
100
AcDbEntity
  8
0
  6
CONTINUOUS
 62
     7
100
AcDbLine
 10
1.45593142734765
 20
110.1052136373094
 30
0.0
 11
1.17308884530462
 21
110.3880562193533
 31
0.0
  0
LINE
  5
432
330
1F
100
AcDbEntity
  8
0
  6
CONTINUOUS
 62
     7
100
AcDbLine
 10
1.45593142734765
 20
110.1052136373094
 30
0.0
 11
1.45593142734765
 21
110.0268265469813
 31
0.0
  0
LINE
  5
433
330
1F
100
AcDbEntity
  8
0
  6
CONTINUOUS
 62
     7
100
AcDbLine
 10
1.3973527835858
 20
107.7838932937502
 30
0.0
 11
1.35593142734865
 21
107.8253146499874
 31
0.0
  0
LINE
  5
434
330
1F
100
AcDbEntity
  8
0
  6
CONTINUOUS
 62
     7
100
AcDbLine
 10
1.45593142734765
 20
107.9253146499873
 30
0.0
 11
1.45593142734765
 21
110.0268265469813
 31
0.0
  0
LINE
  5
435
330
1F
100
AcDbEntity
  8
0
  6
CONTINUOUS
 62
     7
100
AcDbLine
 10
1.20844405393268
 20
106.4636137141993
 30
0.0
 11
-2.9634859550672
 21
102.2916837051983
 31
0.0
  0
LINE
  5
436
330
1F
100
AcDbEntity
  8
0
  6
CONTINUOUS
 62
     7
100
AcDbLine
 10
1.35593142734865
 20
107.8253146499874
 30
0.0
 11
-2.0503131567034
 21
104.4190700659363
 31
0.0
  0
LINE
  5
437
330
1F
100
AcDbEntity
  8
0
  6
CONTINUOUS
 62
     7
100
AcDbLine
 10
1.35593142734865
 20
107.8253146499874
 30
0.0
 11
1.35593142734865
 21
109.9268265469814
 31
0.0
  0
LINE
  5
438
330
1F
100
AcDbEntity
  8
0
  6
CONTINUOUS
 62
     7
100
AcDbLine
 10
0.8548906633398
 20
107.2414311735042
 30
0.0
 11
1.20844405393268
 21
106.8878777829114
 31
0.0
  0
LINE
  5
439
330
1F
100
AcDbEntity
  8
0
  6
CONTINUOUS
 62
     7
100
AcDbLine
 10
1.20844405393268
 20
106.4636137141993
 30
0.0
 11
1.20844405393268
 21
106.8878777829114
 31
0.0
  0
LINE
  5
43A
330
1F
100
AcDbEntity
  8
0
  6
CONTINUOUS
 62
     7
100
AcDbLine
 10
-5.51513638451729
 20
102.1441963317834
 30
0.0
 11
-4.97874035818632
 21
102.6805925115884
 31
0.0
  0
LINE
  5
43B
330
1F
100
AcDbEntity
  8
0
  6
CONTINUOUS
 62
     7
100
AcDbLine
 10
-6.88792846022238
 20
102.3270389138263
 30
0.0
 11
-6.60508574774735
 21
102.6098816263013
 31
0.0
  0
LINE
  5
43C
330
1F
100
AcDbEntity
  8
0
  6
CONTINUOUS
 62
     7
100
AcDbLine
 10
-6.52669878785036
 20
102.0441963317833
 30
0.0
 11
-5.6151363845172
 21
102.0441963317833
 31
0.0
  0
LINE
  5
43D
330
1F
100
AcDbEntity
  8
0
  6
CONTINUOUS
 62
     7
100
AcDbLine
 10
-5.3322936720424
 20
102.0441963317833
 30
0.0
 11
-4.42518689085637
 21
102.0441963317833
 31
0.0
  0
LINE
  5
43E
330
1F
100
AcDbEntity
  8
0
  6
CONTINUOUS
 62
     7
100
AcDbLine
 10
-5.6151363845172
 20
102.0441963317833
 30
0.0
 11
-5.3322936720424
 21
102.0441963317833
 31
0.0
  0
LINE
  5
43F
330
1F
100
AcDbEntity
  8
0
  6
CONTINUOUS
 62
     7
100
AcDbLine
 10
1.20844405393268
 20
106.8878777829114
 30
0.0
 11
-3.38775002377929
 21
102.2916837051983
 31
0.0
  0
LINE
  5
440
330
1F
100
AcDbEntity
  8
0
  6
CONTINUOUS
 62
     7
100
AcDbLine
 10
-3.74130341437331
 20
102.6452370957914
 30
0.0
 11
-3.38775002377929
 21
102.2916837051983
 31
0.0
  0
LINE
  5
441
330
1F
100
AcDbEntity
  8
0
  6
CONTINUOUS
 62
     7
100
AcDbLine
 10
-4.69589764571219
 20
102.9634352240632
 30
0.0
 11
-4.97874035818632
 21
102.6805925115884
 31
0.0
  0
LINE
  5
442
330
1F
100
AcDbEntity
  8
0
  6
CONTINUOUS
 62
     7
100
AcDbLine
 10
-5.61513592713232
 20
103.5998307930083
 30
0.0
 11
-5.72120227126425
 21
103.4937651027845
 31
0.0
  0
LINE
  5
443
330
1F
100
AcDbEntity
  8
0
  6
CONTINUOUS
 62
     7
100
AcDbLine
 10
-0.09970303387718
 20
109.1152636862632
 30
0.0
 11
-1.51391659625028
 21
107.7010501238904
 31
0.0
  0
LINE
  5
444
330
1F
100
AcDbEntity
  8
0
  6
CONTINUOUS
 62
     7
100
AcDbLine
 10
0.00636265634671
 20
109.2213300303954
 30
0.0
 11
-0.09970303387718
 21
109.1152636862632
 31
0.0
  0
LINE
  5
445
330
1F
100
AcDbEntity
  8
0
  6
CONTINUOUS
 62
     7
100
AcDbLine
 10
-1.51391659625028
 20
107.7010501238904
 30
0.0
 11
-4.20092236475921
 21
105.0140443553814
 31
0.0
  0
LINE
  5
446
330
1F
100
AcDbEntity
  8
0
  6
CONTINUOUS
 62
     7
100
AcDbLine
 10
-2.00889180046534
 20
104.3776487096984
 30
0.0
 11
-2.0503131567034
 21
104.4190700659363
 31
0.0
  0
LINE
  5
447
330
1F
100
AcDbEntity
  8
0
  6
CONTINUOUS
 62
     7
100
AcDbLine
 10
-2.0503131567034
 20
104.4190700659363
 30
0.0
 11
-2.50386654729618
 21
104.8726234565293
 31
0.0
  0
LINE
  5
448
330
1F
100
AcDbEntity
  8
0
  6
CONTINUOUS
 62
     7
100
AcDbLine
 10
-3.28168408333931
 20
104.3776487864364
 30
0.0
 11
-2.78670925977121
 21
104.8726234565293
 31
0.0
  0
LINE
  5
449
330
1F
100
AcDbEntity
  8
0
  6
CONTINUOUS
 62
     7
100
AcDbLine
 10
-3.28168408333931
 20
104.3776487864364
 30
0.0
 11
-3.56452679581321
 21
104.0948060739613
 31
0.0
  0
LINE
  5
44A
330
1F
100
AcDbEntity
  8
0
  6
CONTINUOUS
 62
     7
100
AcDbLine
 10
0.89024613282982
 20
110.1052135068783
 30
0.0
 11
0.00636265634671
 21
109.2213300303954
 31
0.0
  0
LINE
  5
44B
330
1F
100
AcDbEntity
  8
0
  6
CONTINUOUS
 62
     7
100
AcDbLine
 10
1.17308871487376
 20
109.8223709248353
 30
0.0
 11
0.89024613282982
 21
110.1052135068783
 31
0.0
  0
LINE
  5
44C
330
1F
100
AcDbEntity
  8
0
  6
CONTINUOUS
 62
     7
100
AcDbLine
 10
0.8548906633398
 20
107.2414311735042
 30
0.0
 11
-2.00889180046534
 21
104.3776487096984
 31
0.0
  0
LINE
  5
44D
330
1F
100
AcDbEntity
  8
0
  6
CONTINUOUS
 62
     7
100
AcDbLine
 10
-2.00889180046534
 20
104.3776487096984
 30
0.0
 11
-3.4938160409572
 21
102.8927244692072
 31
0.0
  0
LINE
  5
44E
330
1F
100
AcDbEntity
  8
0
  6
CONTINUOUS
 62
     7
100
AcDbLine
 10
-5.72120227126425
 20
103.4937651027845
 30
0.0
 11
-6.60508574774735
 21
102.6098816263013
 31
0.0
  0
LINE
  5
44F
330
1F
100
AcDbEntity
  8
0
  6
CONTINUOUS
 62
     7
100
AcDbLine
 10
0.89024613282982
 20
110.1052135068783
 30
0.0
 11
1.17308884530462
 21
110.3880562193533
 31
0.0
  0
LINE
  5
450
330
1F
100
AcDbEntity
  8
0
  6
CONTINUOUS
 62
     7
100
AcDbLine
 10
-4.20092236475921
 20
105.0140443553814
 30
0.0
 11
-5.61513592713232
 21
103.5998307930083
 31
0.0
  0
LINE
  5
451
330
1F
100
AcDbEntity
  8
0
  6
CONTINUOUS
 62
     7
100
AcDbLine
 10
-4.13021214402534
 20
103.5291205722754
 30
0.0
 11
-4.69589764571219
 21
102.9634352240632
 31
0.0
  0
LINE
  5
452
330
1F
100
AcDbEntity
  8
0
  6
CONTINUOUS
 62
     7
100
AcDbLine
 10
-3.4938160409572
 20
102.8927244692072
 30
0.0
 11
-3.63523747393219
 21
103.0341459021813
 31
0.0
  0
LINE
  5
453
330
1F
100
AcDbEntity
  8
0
  6
CONTINUOUS
 62
     7
100
AcDbLine
 10
-3.56452679581321
 20
104.0948060739613
 30
0.0
 11
-4.13021214402534
 21
103.5291205722754
 31
0.0
  0
LINE
  5
454
330
1F
100
AcDbEntity
  8
0
  6
CONTINUOUS
 62
     7
100
AcDbLine
 10
-2.9634859550672
 20
102.2916837051983
 30
0.0
 11
-3.38775002377929
 21
102.2916837051983
 31
0.0
  0
LINE
  5
455
330
1F
100
AcDbEntity
  8
0
  6
CONTINUOUS
 62
     7
100
AcDbLine
 10
-4.2837655346184
 20
102.1027749755454
 30
0.0
 11
-3.74130341437331
 21
102.6452370957914
 31
0.0
  0
LINE
  5
456
330
1F
100
AcDbEntity
  8
0
  6
CONTINUOUS
 62
     7
100
AcDbLine
 10
-3.74130341437331
 20
102.6452370957914
 30
0.0
 11
-3.4938160409572
 21
102.8927244692072
 31
0.0
  0
LINE
  5
457
330
1F
100
AcDbEntity
  8
0
  6
CONTINUOUS
 62
     7
100
AcDbLine
 10
-5.51513638451729
 20
102.1441963317834
 30
0.0
 11
-5.6151363845172
 21
102.0441963317833
 31
0.0
  0
LINE
  5
458
330
1F
100
AcDbEntity
  8
0
  6
CONTINUOUS
 62
     7
100
AcDbLine
 10
-6.60508587817822
 20
102.0441963317833
 30
0.0
 11
-6.88792846022238
 21
102.3270389138263
 31
0.0
  0
LINE
  5
459
330
1F
100
AcDbEntity
  8
0
  6
CONTINUOUS
 62
     7
100
AcDbLine
 10
-6.52669878785036
 20
102.0441963317833
 30
0.0
 11
-6.60508587817822
 21
102.0441963317833
 31
0.0
  0
LINE
  5
45A
330
1F
100
AcDbEntity
  8
0
  6
CONTINUOUS
 62
     7
100
AcDbLine
 10
1.30948527886767
 20
110.5244519990083
 30
0.0
 11
1.17308884530462
 21
110.3880562193533
 31
0.0
  0
LINE
  5
45B
330
1F
100
AcDbEntity
  8
0
  6
CONTINUOUS
 62
     7
100
AcDbLine
 10
-6.88792846022238
 20
102.3270389138263
 30
0.0
 11
-6.60508574774735
 21
102.6098816263013
 31
0.0
  0
LINE
  5
45C
330
1F
100
AcDbEntity
  8
0
  6
CONTINUOUS
 62
     7
100
AcDbLine
 10
-6.88792846022238
 20
102.3270389138263
 30
0.0
 11
-7.02432341434928
 21
102.1906433057902
 31
0.0
  0
LINE
  5
45D
330
1F
100
AcDbEntity
  8
0
  6
CONTINUOUS
 62
     7
100
AcDbLine
 10
-5.61513592713232
 20
103.5998307930083
 30
0.0
 11
-5.72120227126425
 21
103.4937651027845
 31
0.0
  0
LINE
  5
45E
330
1F
100
AcDbEntity
  8
0
  6
CONTINUOUS
 62
     7
100
AcDbLine
 10
-0.09970303387718
 20
109.1152636862632
 30
0.0
 11
-1.51391659625028
 21
107.7010501238904
 31
0.0
  0
LINE
  5
45F
330
1F
100
AcDbEntity
  8
0
  6
CONTINUOUS
 62
     7
100
AcDbLine
 10
0.00636265634671
 20
109.2213300303954
 30
0.0
 11
-0.09970303387718
 21
109.1152636862632
 31
0.0
  0
LINE
  5
460
330
1F
100
AcDbEntity
  8
0
  6
CONTINUOUS
 62
     7
100
AcDbLine
 10
-1.51391659625028
 20
107.7010501238904
 30
0.0
 11
-4.20092236475921
 21
105.0140443553814
 31
0.0
  0
LINE
  5
461
330
1F
100
AcDbEntity
  8
0
  6
CONTINUOUS
 62
     7
100
AcDbLine
 10
0.89024613282982
 20
110.1052135068783
 30
0.0
 11
0.00636265634671
 21
109.2213300303954
 31
0.0
  0
LINE
  5
462
330
1F
100
AcDbEntity
  8
0
  6
CONTINUOUS
 62
     7
100
AcDbLine
 10
-5.72120227126425
 20
103.4937651027845
 30
0.0
 11
-6.60508574774735
 21
102.6098816263013
 31
0.0
  0
LINE
  5
463
330
1F
100
AcDbEntity
  8
0
  6
CONTINUOUS
 62
     7
100
AcDbLine
 10
0.89024613282982
 20
110.1052135068783
 30
0.0
 11
1.17308884530462
 21
110.3880562193533
 31
0.0
  0
LINE
  5
464
330
1F
100
AcDbEntity
  8
0
  6
CONTINUOUS
 62
     7
100
AcDbLine
 10
-4.20092236475921
 20
105.0140443553814
 30
0.0
 11
-5.61513592713232
 21
103.5998307930083
 31
0.0
  0
LINE
  5
465
330
1F
100
AcDbEntity
  8
0
  6
CONTINUOUS
 62
     7
100
AcDbLine
 10
-4.69589764571219
 20
102.9634352240632
 30
0.0
 11
-4.97874035818632
 21
102.6805925115884
 31
0.0
  0
LINE
  5
466
330
1F
100
AcDbEntity
  8
0
  6
CONTINUOUS
 62
     7
100
AcDbLine
 10
-3.28168408333931
 20
104.3776487864364
 30
0.0
 11
-2.99884137086428
 21
104.0948060739613
 31
0.0
  0
LINE
  5
467
330
1F
100
AcDbEntity
  8
0
  6
CONTINUOUS
 62
     7
100
AcDbLine
 10
-3.28168408333931
 20
104.3776487864364
 30
0.0
 11
-3.56452679581321
 21
104.0948060739613
 31
0.0
  0
LINE
  5
468
330
1F
100
AcDbEntity
  8
0
  6
CONTINUOUS
 62
     7
100
AcDbLine
 10
-4.13021214402534
 20
103.5291205722754
 30
0.0
 11
-4.69589764571219
 21
102.9634352240632
 31
0.0
  0
LINE
  5
469
330
1F
100
AcDbEntity
  8
0
  6
CONTINUOUS
 62
     7
100
AcDbLine
 10
-2.99884137086428
 20
103.6705420052492
 30
0.0
 11
-4.27163357700033
 21
102.3977497991134
 31
0.0
  0
LINE
  5
46A
330
1F
100
AcDbEntity
  8
0
  6
CONTINUOUS
 62
     7
100
AcDbLine
 10
-3.56452679581321
 20
104.0948060739613
 30
0.0
 11
-4.13021214402534
 21
103.5291205722754
 31
0.0
  0
LINE
  5
46B
330
1F
100
AcDbEntity
  8
0
  6
CONTINUOUS
 62
     7
100
AcDbLine
 10
-4.97874035818632
 20
102.6805925115884
 30
0.0
 11
-4.69589764571219
 21
102.3977497991134
 31
0.0
  0
ARC
  5
46C
330
1F
100
AcDbEntity
  8
0
  6
CONTINUOUS
 62
     7
100
AcDbCircle
 10
-69.54406811172521
 20
146.4091963317826
 30
0.0
 40
0.4999999999997487
100
AcDbArc
 50
4.01398721805794
 51
90.0
  0
ARC
  5
46D
330
1F
100
AcDbEntity
  8
0
  6
CONTINUOUS
 62
     7
100
AcDbCircle
 10
-79.54406811172521
 20
146.4091963317826
 30
0.0
 40
0.5
100
AcDbArc
 50
90.0
 51
175.9860127819439
  0
ARC
  5
46E
330
1F
100
AcDbEntity
  8
0
  6
CONTINUOUS
 62
     7
100
AcDbCircle
 10
-4.74406860292925
 20
146.4091963317826
 30
0.0
 40
0.4999999999997567
100
AcDbArc
 50
4.01398721807094
 51
90.0
  0
ARC
  5
46F
330
1F
100
AcDbEntity
  8
0
  6
CONTINUOUS
 62
     7
100
AcDbCircle
 10
-7.84406860292938
 20
146.4091963317826
 30
0.0
 40
0.5
100
AcDbArc
 50
90.0
 51
175.986012781929
  0
ARC
  5
470
330
1F
100
AcDbEntity
  8
0
  6
CONTINUOUS
 62
     7
100
AcDbCircle
 10
-24.99406860292925
 20
146.4091963317826
 30
0.0
 40
0.5
100
AcDbArc
 50
90.0
 51
175.9860127819381
  0
ARC
  5
471
330
1F
100
AcDbEntity
  8
0
  6
CONTINUOUS
 62
     7
100
AcDbCircle
 10
-21.89406860292934
 20
146.4091963317826
 30
0.0
 40
0.4999999999999871
100
AcDbArc
 50
4.01398721806908
 51
90.0
  0
ARC
  5
472
330
1F
100
AcDbEntity
  8
0
  6
CONTINUOUS
 62
     7
100
AcDbCircle
 10
42.95593188827479
 20
146.4091963317827
 30
0.0
 40
0.5
100
AcDbArc
 50
90.0
 51
180.0
  0
ARC
  5
473
330
1F
100
AcDbEntity
  8
0
  6
CONTINUOUS
 62
     7
100
AcDbCircle
 10
52.95593188827479
 20
146.4091963317827
 30
0.0
 40
0.5
100
AcDbArc
 50
0.0
 51
90.0
  0
ARC
  5
474
330
1F
100
AcDbEntity
  8
0
  6
CONTINUOUS
 62
     7
100
AcDbCircle
 10
39.20593188827479
 20
143.0941963317814
 30
0.0
 40
0.3500000000000582
100
AcDbArc
 50
315.5846914027973
 51
0.0
  0
ARC
  5
475
330
1F
100
AcDbEntity
  8
0
  6
CONTINUOUS
 62
     7
100
AcDbCircle
 10
56.70593188827479
 20
143.0941963317814
 30
0.0
 40
0.3500000000001435
100
AcDbArc
 50
180.0
 51
224.4153085972027
  0
ARC
  5
476
330
1F
100
AcDbEntity
  8
0
  6
CONTINUOUS
 62
     7
100
AcDbCircle
 10
42.50593188827475
 20
138.0441963319808
 30
0.0
 40
0.2000000000000526
100
AcDbArc
 50
180.0
 51
270.0
  0
ARC
  5
477
330
1F
100
AcDbEntity
  8
0
  6
CONTINUOUS
 62
     7
100
AcDbCircle
 10
53.40593188827461
 20
138.0441963319808
 30
0.0
 40
0.2000000000001023
100
AcDbArc
 50
270.0
 51
0.0
  0
ARC
  5
478
330
1F
100
AcDbEntity
  8
0
  6
CONTINUOUS
 62
     7
100
AcDbCircle
 10
1.35593185919061
 20
141.2575676859443
 30
0.0
 40
2.000000000000629
100
AcDbArc
 50
336.6444351450668
 51
0.0
  0
ARC
  5
479
330
1F
100
AcDbEntity
  8
0
  6
CONTINUOUS
 62
     7
100
AcDbCircle
 10
-2.9040681404133
 20
190.4310227958587
 30
0.0
 40
0.6500000000000057
100
AcDbArc
 50
90.0
 51
122.2042275039152
  0
ARC
  5
47A
330
1F
100
AcDbEntity
  8
0
  6
CONTINUOUS
 62
     7
100
AcDbCircle
 10
-28.35406811172538
 20
188.4810227958588
 30
0.0
 40
2.599999999999733
100
AcDbArc
 50
74.05763139437599
 51
90.0
  0
ARC
  5
47B
330
1F
100
AcDbEntity
  8
0
  6
CONTINUOUS
 62
     7
100
AcDbCircle
 10
0.04593188827471
 20
206.2810227958586
 30
0.0
 40
0.7999999999999545
100
AcDbArc
 50
0.0
 51
90.0
  0
ARC
  5
47C
330
1F
100
AcDbEntity
  8
0
  6
CONTINUOUS
 62
     7
100
AcDbCircle
 10
2.1459318591908
 20
205.4310227958586
 30
0.0
 40
1.199999999999818
100
AcDbArc
 50
0.0
 51
90.0
  0
ARC
  5
47D
330
1F
100
AcDbEntity
  8
0
  6
CONTINUOUS
 62
     7
100
AcDbCircle
 10
0.04593188827471
 20
192.6810227958588
 30
0.0
 40
0.8000000000002103
100
AcDbArc
 50
270.0
 51
0.0
  0
ARC
  5
47E
330
1F
100
AcDbEntity
  8
0
  6
CONTINUOUS
 62
     7
100
AcDbCircle
 10
2.1459318591908
 20
193.5310227958586
 30
0.0
 40
1.199999999999903
100
AcDbArc
 50
270.0
 51
0.0
  0
ARC
  5
47F
330
1F
100
AcDbEntity
  8
0
  6
CONTINUOUS
 62
     7
100
AcDbCircle
 10
-26.85406835837739
 20
192.6810227958586
 30
0.0
 40
0.799999999999951
100
AcDbArc
 50
180.0
 51
270.0
  0
ARC
  5
480
330
1F
100
AcDbEntity
  8
0
  6
CONTINUOUS
 62
     7
100
AcDbCircle
 10
-28.35406811172538
 20
210.4810227958588
 30
0.0
 40
2.600000000000193
100
AcDbArc
 50
270.0
 51
285.9423686056216
  0
ARC
  5
481
330
1F
100
AcDbEntity
  8
0
  6
CONTINUOUS
 62
     7
100
AcDbCircle
 10
-26.85406835837739
 20
206.2810227958586
 30
0.0
 40
0.8000000000000966
100
AcDbArc
 50
90.0
 51
180.0
  0
ARC
  5
482
330
1F
100
AcDbEntity
  8
0
  6
CONTINUOUS
 62
     7
100
AcDbCircle
 10
-2.9040681404133
 20
208.5310227958587
 30
0.0
 40
0.6499999999996413
100
AcDbArc
 50
237.7957724960941
 51
270.0
  0
ARC
  5
483
330
1F
100
AcDbEntity
  8
0
  6
CONTINUOUS
 62
     7
100
AcDbCircle
 10
-22.70406860292928
 20
195.2810227958586
 30
0.0
 40
1.599999999999994
100
AcDbArc
 50
270.0
 51
314.0486256740731
  0
ARC
  5
484
330
1F
100
AcDbEntity
  8
0
  6
CONTINUOUS
 62
     7
100
AcDbCircle
 10
-22.70406860292928
 20
195.2810227958586
 30
0.0
 40
1.300000000000097
100
AcDbArc
 50
270.0
 51
0.0
  0
ARC
  5
485
330
1F
100
AcDbEntity
  8
0
  6
CONTINUOUS
 62
     7
100
AcDbCircle
 10
-24.20406860292928
 20
195.2810227958586
 30
0.0
 40
1.299999999999962
100
AcDbArc
 50
180.0
 51
270.0
  0
ARC
  5
486
330
1F
100
AcDbEntity
  8
0
  6
CONTINUOUS
 62
     7
100
AcDbCircle
 10
-24.25406884958125
 20
195.2810227958586
 30
0.0
 40
1.600000000000129
100
AcDbArc
 50
180.0
 51
270.0
  0
ARC
  5
487
330
1F
100
AcDbEntity
  8
0
  6
CONTINUOUS
 62
     7
100
AcDbCircle
 10
-26.75406884958125
 20
192.7810227958586
 30
0.0
 40
0.7999999999999474
100
AcDbArc
 50
180.0
 51
270.0
  0
ARC
  5
488
330
1F
100
AcDbEntity
  8
0
  6
CONTINUOUS
 62
     7
100
AcDbCircle
 10
-22.70406860292928
 20
203.6810227958586
 30
0.0
 40
1.299999999999951
100
AcDbArc
 50
0.0
 51
90.0
  0
ARC
  5
489
330
1F
100
AcDbEntity
  8
0
  6
CONTINUOUS
 62
     7
100
AcDbCircle
 10
-24.20406860292928
 20
203.6810227958586
 30
0.0
 40
1.299999999999983
100
AcDbArc
 50
90.0
 51
180.0
  0
ARC
  5
48A
330
1F
100
AcDbEntity
  8
0
  6
CONTINUOUS
 62
     7
100
AcDbCircle
 10
-22.70406860292928
 20
195.2810227958586
 30
0.0
 40
1.599999999999705
100
AcDbArc
 50
314.0486256740731
 51
0.0
  0
ARC
  5
48B
330
1F
100
AcDbEntity
  8
0
  6
CONTINUOUS
 62
     7
100
AcDbCircle
 10
-22.70406860292928
 20
203.6810227958586
 30
0.0
 40
1.599999999999909
100
AcDbArc
 50
0.0
 51
45.95137432592901
  0
ARC
  5
48C
330
1F
100
AcDbEntity
  8
0
  6
CONTINUOUS
 62
     7
100
AcDbCircle
 10
-24.25406884958125
 20
203.6810227958586
 30
0.0
 40
1.599999999999994
100
AcDbArc
 50
90.0
 51
180.0
  0
ARC
  5
48D
330
1F
100
AcDbEntity
  8
0
  6
CONTINUOUS
 62
     7
100
AcDbCircle
 10
-26.75406884958125
 20
206.1810227958586
 30
0.0
 40
0.799999999999983
100
AcDbArc
 50
90.0
 51
180.0
  0
ARC
  5
48E
330
1F
100
AcDbEntity
  8
0
  6
CONTINUOUS
 62
     7
100
AcDbCircle
 10
-22.70406860292928
 20
203.6810227958586
 30
0.0
 40
1.599999999999766
100
AcDbArc
 50
45.95137432592901
 51
90.0
  0
ARC
  5
48F
330
1F
100
AcDbEntity
  8
0
  6
CONTINUOUS
 62
     7
100
AcDbCircle
 10
-5.50406860293037
 20
195.2810227958586
 30
0.0
 40
1.599999999999994
100
AcDbArc
 50
270.0
 51
0.0
  0
ARC
  5
490
330
1F
100
AcDbEntity
  8
0
  6
CONTINUOUS
 62
     7
100
AcDbCircle
 10
-7.05406860292919
 20
195.2810227958586
 30
0.0
 40
1.300000000000182
100
AcDbArc
 50
180.0
 51
270.0
  0
ARC
  5
491
330
1F
100
AcDbEntity
  8
0
  6
CONTINUOUS
 62
     7
100
AcDbCircle
 10
-5.55406860292919
 20
195.2810227958586
 30
0.0
 40
1.300000000000097
100
AcDbArc
 50
270.0
 51
0.0
  0
ARC
  5
492
330
1F
100
AcDbEntity
  8
0
  6
CONTINUOUS
 62
     7
100
AcDbCircle
 10
-0.05406860293033
 20
192.7810227958586
 30
0.0
 40
0.8000000000000114
100
AcDbArc
 50
270.0
 51
0.0
  0
ARC
  5
493
330
1F
100
AcDbEntity
  8
0
  6
CONTINUOUS
 62
     7
100
AcDbCircle
 10
-7.05406860292919
 20
195.2810227958586
 30
0.0
 40
1.599999999999866
100
AcDbArc
 50
225.9513743259209
 51
270.0
  0
ARC
  5
494
330
1F
100
AcDbEntity
  8
0
  6
CONTINUOUS
 62
     7
100
AcDbCircle
 10
-7.05406860292919
 20
195.2810227958586
 30
0.0
 40
1.600000000000136
100
AcDbArc
 50
180.0
 51
225.9513743259209
  0
ARC
  5
495
330
1F
100
AcDbEntity
  8
0
  6
CONTINUOUS
 62
     7
100
AcDbCircle
 10
-7.05406860292919
 20
203.6810227958586
 30
0.0
 40
1.599999999999994
100
AcDbArc
 50
90.0
 51
134.0486256740769
  0
ARC
  5
496
330
1F
100
AcDbEntity
  8
0
  6
CONTINUOUS
 62
     7
100
AcDbCircle
 10
-0.05406860293033
 20
206.1810227958586
 30
0.0
 40
0.7999999999999545
100
AcDbArc
 50
0.0
 51
90.0
  0
ARC
  5
497
330
1F
100
AcDbEntity
  8
0
  6
CONTINUOUS
 62
     7
100
AcDbCircle
 10
-7.05406860292919
 20
203.6810227958586
 30
0.0
 40
1.299999999999983
100
AcDbArc
 50
90.0
 51
180.0
  0
ARC
  5
498
330
1F
100
AcDbEntity
  8
0
  6
CONTINUOUS
 62
     7
100
AcDbCircle
 10
-5.55406860292919
 20
203.6810227958586
 30
0.0
 40
1.299999999999955
100
AcDbArc
 50
0.0
 51
90.0
  0
ARC
  5
499
330
1F
100
AcDbEntity
  8
0
  6
CONTINUOUS
 62
     7
100
AcDbCircle
 10
-7.05406860292919
 20
203.6810227958586
 30
0.0
 40
1.599999999999927
100
AcDbArc
 50
134.0486256740769
 51
180.0
  0
ARC
  5
49A
330
1F
100
AcDbEntity
  8
0
  6
CONTINUOUS
 62
     7
100
AcDbCircle
 10
-5.50406860293037
 20
203.6810227958586
 30
0.0
 40
1.600000000001046
100
AcDbArc
 50
0.0
 51
90.0
  0
ARC
  5
49B
330
1F
100
AcDbEntity
  8
0
  6
CONTINUOUS
 62
     7
100
AcDbCircle
 10
-68.04406811172521
 20
141.7941963317825
 30
0.0
 40
1.049999999999955
100
AcDbArc
 50
0.0
 51
90.0
  0
ARC
  5
49C
330
1F
100
AcDbEntity
  8
0
  6
CONTINUOUS
 62
     7
100
AcDbCircle
 10
-68.04406811172521
 20
108.1941963317827
 30
0.0
 40
1.050000000000011
100
AcDbArc
 50
270.0
 51
0.0
  0
ARC
  5
49D
330
1F
100
AcDbEntity
  8
0
  6
CONTINUOUS
 62
     7
100
AcDbCircle
 10
-81.04406811172521
 20
108.1941963317827
 30
0.0
 40
1.050000000000182
100
AcDbArc
 50
180.0
 51
270.0
  0
ARC
  5
49E
330
1F
100
AcDbEntity
  8
0
  6
CONTINUOUS
 62
     7
100
AcDbCircle
 10
-81.04406811172521
 20
141.7941963317825
 30
0.0
 40
1.050000000000097
100
AcDbArc
 50
90.0
 51
180.0
  0
ARC
  5
49F
330
1F
100
AcDbEntity
  8
0
  6
CONTINUOUS
 62
     7
100
AcDbCircle
 10
-68.04406811172521
 20
141.7941963317825
 30
0.0
 40
1.0
100
AcDbArc
 50
0.0
 51
90.0
  0
ARC
  5
4A0
330
1F
100
AcDbEntity
  8
0
  6
CONTINUOUS
 62
     7
100
AcDbCircle
 10
-68.04406811172521
 20
108.1941963317827
 30
0.0
 40
1.0
100
AcDbArc
 50
270.0
 51
0.0
  0
ARC
  5
4A1
330
1F
100
AcDbEntity
  8
0
  6
CONTINUOUS
 62
     7
100
AcDbCircle
 10
-69.79406811172521
 20
135.0441963317825
 30
0.0
 40
1.0
100
AcDbArc
 50
0.0
 51
90.0
  0
ARC
  5
4A2
330
1F
100
AcDbEntity
  8
0
  6
CONTINUOUS
 62
     7
100
AcDbCircle
 10
-69.79406811172521
 20
118.9441961816797
 30
0.0
 40
1.0
100
AcDbArc
 50
270.0
 51
0.0
  0
ARC
  5
4A3
330
1F
100
AcDbEntity
  8
0
  6
CONTINUOUS
 62
     7
100
AcDbCircle
 10
-79.29406811172521
 20
135.0441963317825
 30
0.0
 40
1.0
100
AcDbArc
 50
90.0
 51
180.0
  0
ARC
  5
4A4
330
1F
100
AcDbEntity
  8
0
  6
CONTINUOUS
 62
     7
100
AcDbCircle
 10
-79.29406811172521
 20
118.9441961816797
 30
0.0
 40
1.0
100
AcDbArc
 50
180.0
 51
270.0
  0
ARC
  5
4A5
330
1F
100
AcDbEntity
  8
0
  6
CONTINUOUS
 62
     7
100
AcDbCircle
 10
-81.04406811172521
 20
141.7941963317825
 30
0.0
 40
1.0
100
AcDbArc
 50
90.0
 51
180.0
  0
ARC
  5
4A6
330
1F
100
AcDbEntity
  8
0
  6
CONTINUOUS
 62
     7
100
AcDbCircle
 10
-81.04406811172521
 20
108.1941963317827
 30
0.0
 40
1.0
100
AcDbArc
 50
180.0
 51
270.0
  0
ARC
  5
4A7
330
1F
100
AcDbEntity
  8
0
  6
CONTINUOUS
 62
     7
100
AcDbCircle
 10
-74.54406811172521
 20
118.0441961816796
 30
0.0
 40
2.450000000000208
100
AcDbArc
 50
357.6607469258305
 51
0.0
  0
ARC
  5
4A8
330
1F
100
AcDbEntity
  8
0
  6
CONTINUOUS
 62
     7
100
AcDbCircle
 10
-74.54406811172521
 20
118.0441961816796
 30
0.0
 40
2.449999999999818
100
AcDbArc
 50
0.0
 51
66.68855431849863
  0
ARC
  5
4A9
330
1F
100
AcDbEntity
  8
0
  6
CONTINUOUS
 62
     7
100
AcDbCircle
 10
-74.54406811172521
 20
118.0441961816796
 30
0.0
 40
2.449999999999928
100
AcDbArc
 50
113.3114456815063
 51
182.3392530741693
  0
ARC
  5
4AA
330
1F
100
AcDbEntity
  8
0
  6
CONTINUOUS
 62
     7
100
AcDbCircle
 10
-74.54406811172521
 20
118.0441961816796
 30
0.0
 40
2.450000000000435
100
AcDbArc
 50
182.3392530741693
 51
357.6607469258305
  0
ARC
  5
4AB
330
1F
100
AcDbEntity
  8
0
  6
CONTINUOUS
 62
     7
100
AcDbCircle
 10
2.23244004540175
 20
147.4439661516558
 30
0.0
 40
0.1999999999997209
100
AcDbArc
 50
26.56505115445094
 51
91.1217245309986
  0
ARC
  5
4AC
330
1F
100
AcDbEntity
  8
0
  6
CONTINUOUS
 62
     7
100
AcDbCircle
 10
1.35593185902371
 20
145.1720601634146
 30
0.0
 40
2.000000000020009
100
AcDbArc
 50
359.9999999797202
 51
26.56505115679734
  0
ARC
  5
4AD
330
1F
100
AcDbEntity
  8
0
  6
CONTINUOUS
 62
     7
100
AcDbCircle
 10
2.25593188827474
 20
146.2441961181417
 30
0.0
 40
1.400000000000054
100
AcDbArc
 50
91.12172453089659
 51
171.786780464274
  0
ARC
  5
4AE
330
1F
100
AcDbEntity
  8
0
  6
CONTINUOUS
 62
     7
100
AcDbCircle
 10
-11.24406767409823
 20
104.3441963317828
 30
0.0
 40
1.400000000000089
100
AcDbArc
 50
180.0
 51
270.0
  0
ARC
  5
4AF
330
1F
100
AcDbEntity
  8
0
  6
CONTINUOUS
 62
     7
100
AcDbCircle
 10
-8.14417189533333
 20
104.3941963317826
 30
0.0
 40
1.449999999999889
100
AcDbArc
 50
270.0
 51
315.0000000000163
  0
ARC
  5
4B0
330
1F
100
AcDbEntity
  8
0
  6
CONTINUOUS
 62
     7
100
AcDbCircle
 10
-0.89406811172535
 20
143.5941963317819
 30
0.0
 40
1.450000000000045
100
AcDbArc
 50
0.0
 51
90.0
  0
ARC
  5
4B1
330
1F
100
AcDbEntity
  8
0
  6
CONTINUOUS
 62
     7
100
AcDbCircle
 10
-15.54406767409819
 20
104.6441963317826
 30
0.0
 40
2.899999999999871
100
AcDbArc
 50
0.0
 51
90.0
  0
ARC
  5
4B2
330
1F
100
AcDbEntity
  8
0
  6
CONTINUOUS
 62
     7
100
AcDbCircle
 10
-28.54406811172521
 20
108.9441963317825
 30
0.0
 40
1.400000000000091
100
AcDbArc
 50
180.0
 51
270.0
  0
ARC
  5
4B3
330
1F
100
AcDbEntity
  8
0
  6
CONTINUOUS
 62
     7
100
AcDbCircle
 10
-28.53941443070835
 20
143.8441963317826
 30
0.0
 40
2.899999999999892
100
AcDbArc
 50
270.0
 51
357.3341182351421
  0
ARC
  5
4B4
330
1F
100
AcDbEntity
  8
0
  6
CONTINUOUS
 62
     7
100
AcDbCircle
 10
-24.24406811172526
 20
143.6441963317818
 30
0.0
 40
1.400000000000091
100
AcDbArc
 50
90.0
 51
177.3341182351387
  0
ARC
  5
4B5
330
1F
100
AcDbEntity
  8
0
  6
CONTINUOUS
 62
     7
100
AcDbCircle
 10
-28.54406811172521
 20
139.5441963317826
 30
0.0
 40
1.400000000000119
100
AcDbArc
 50
90.0
 51
180.0
  0
ARC
  5
4B6
330
1F
100
AcDbEntity
  8
0
  6
CONTINUOUS
 62
     7
100
AcDbCircle
 10
-0.89406811172535
 20
111.64430011539
 30
0.0
 40
1.449999999999698
100
AcDbArc
 50
314.9999999999936
 51
0.0
  0
ARC
  5
4B7
330
1F
100
AcDbEntity
  8
0
  6
CONTINUOUS
 62
     7
100
AcDbCircle
 10
-11.24406767409823
 20
104.3441963317828
 30
0.0
 40
1.400000000000089
100
AcDbArc
 50
180.0
 51
270.0
  0
ARC
  5
4B8
330
1F
100
AcDbEntity
  8
0
  6
CONTINUOUS
 62
     7
100
AcDbCircle
 10
-8.14417189533333
 20
104.3941963317826
 30
0.0
 40
1.449999999999889
100
AcDbArc
 50
270.0
 51
315.0000000000163
  0
ARC
  5
4B9
330
1F
100
AcDbEntity
  8
0
  6
CONTINUOUS
 62
     7
100
AcDbCircle
 10
-0.89406811172535
 20
143.5941963317819
 30
0.0
 40
1.450000000000045
100
AcDbArc
 50
0.0
 51
90.0
  0
ARC
  5
4BA
330
1F
100
AcDbEntity
  8
0
  6
CONTINUOUS
 62
     7
100
AcDbCircle
 10
-15.54406767409819
 20
104.6441963317826
 30
0.0
 40
2.899999999999871
100
AcDbArc
 50
0.0
 51
90.0
  0
ARC
  5
4BB
330
1F
100
AcDbEntity
  8
0
  6
CONTINUOUS
 62
     7
100
AcDbCircle
 10
-28.54406811172521
 20
108.9441963317825
 30
0.0
 40
1.400000000000091
100
AcDbArc
 50
180.0
 51
270.0
  0
ARC
  5
4BC
330
1F
100
AcDbEntity
  8
0
  6
CONTINUOUS
 62
     7
100
AcDbCircle
 10
-25.64406811172535
 20
113.3441963317819
 30
0.0
 40
0.2000000000000419
100
AcDbArc
 50
180.0
 51
270.0
  0
ARC
  5
4BD
330
1F
100
AcDbEntity
  8
0
  6
CONTINUOUS
 62
     7
100
AcDbCircle
 10
-25.64406811172535
 20
138.3441963317819
 30
0.0
 40
0.2000000000000171
100
AcDbArc
 50
90.0
 51
180.0
  0
ARC
  5
4BE
330
1F
100
AcDbEntity
  8
0
  6
CONTINUOUS
 62
     7
100
AcDbCircle
 10
-5.64406811172535
 20
138.3441963317819
 30
0.0
 40
0.2000000000000455
100
AcDbArc
 50
0.0
 51
90.0
  0
ARC
  5
4BF
330
1F
100
AcDbEntity
  8
0
  6
CONTINUOUS
 62
     7
100
AcDbCircle
 10
-28.53941443070835
 20
143.8441963317826
 30
0.0
 40
2.899999999999892
100
AcDbArc
 50
270.0
 51
357.3341182351421
  0
ARC
  5
4C0
330
1F
100
AcDbEntity
  8
0
  6
CONTINUOUS
 62
     7
100
AcDbCircle
 10
-5.64406811172535
 20
113.3441963317819
 30
0.0
 40
0.2000000000001023
100
AcDbArc
 50
270.0
 51
0.0
  0
ARC
  5
4C1
330
1F
100
AcDbEntity
  8
0
  6
CONTINUOUS
 62
     7
100
AcDbCircle
 10
-24.24406811172526
 20
143.6441963317818
 30
0.0
 40
1.400000000000091
100
AcDbArc
 50
90.0
 51
177.3341182351387
  0
ARC
  5
4C2
330
1F
100
AcDbEntity
  8
0
  6
CONTINUOUS
 62
     7
100
AcDbCircle
 10
-28.54406811172521
 20
139.5441963317826
 30
0.0
 40
1.400000000000119
100
AcDbArc
 50
90.0
 51
180.0
  0
ARC
  5
4C3
330
1F
100
AcDbEntity
  8
0
  6
CONTINUOUS
 62
     7
100
AcDbCircle
 10
-0.89406811172535
 20
111.64430011539
 30
0.0
 40
1.449999999999698
100
AcDbArc
 50
314.9999999999936
 51
0.0
  0
ARC
  5
4C4
330
1F
100
AcDbEntity
  8
0
  6
CONTINUOUS
 62
     7
100
AcDbCircle
 10
-28.74406811172526
 20
143.8441963317826
 30
0.0
 40
2.600000000000108
100
AcDbArc
 50
90.0
 51
180.0
  0
ARC
  5
4C5
330
1F
100
AcDbEntity
  8
0
  6
CONTINUOUS
 62
     7
100
AcDbCircle
 10
-28.54406811172021
 20
143.8441963320014
 30
0.0
 40
2.799999999994346
100
AcDbArc
 50
357.3341182305789
 51
359.999999995523
  0
ARC
  5
4C6
330
1F
100
AcDbEntity
  8
0
  6
CONTINUOUS
 62
     7
100
AcDbCircle
 10
-24.24872179274826
 20
143.6441963317767
 30
0.0
 40
1.500000000004405
100
AcDbArc
 50
89.99999999977393
 51
177.3341182350937
  0
ARC
  5
4C7
330
1F
100
AcDbEntity
  8
0
  6
CONTINUOUS
 62
     7
100
AcDbCircle
 10
1.10593187393079
 20
119.0941963317826
 30
0.0
 40
0.3499999856560412
100
AcDbArc
 50
180.0
 51
0.0
  0
ARC
  5
4C8
330
1F
100
AcDbEntity
  8
0
  6
CONTINUOUS
 62
     7
100
AcDbCircle
 10
1.10593187393079
 20
123.3941963317825
 30
0.0
 40
0.3499999999999091
100
AcDbArc
 50
0.00000000001628
 51
90.0
  0
ARC
  5
4C9
330
1F
100
AcDbEntity
  8
0
  6
CONTINUOUS
 62
     7
100
AcDbCircle
 10
0.95593187393069
 20
110.8780049903712
 30
0.0
 40
0.4999999856560023
100
AcDbArc
 50
315.0000039681975
 51
0.00000396822664
  0
ARC
  5
4CA
330
1F
100
AcDbEntity
  8
0
  6
CONTINUOUS
 62
     7
100
AcDbCircle
 10
-0.74406811172526
 20
111.7235894372719
 30
0.0
 40
1.500000000000324
100
AcDbArc
 50
314.9999999999973
 51
0.0
  0
ARC
  5
4CB
330
1F
100
AcDbEntity
  8
0
  6
CONTINUOUS
 62
     7
100
AcDbCircle
 10
-0.74406811172526
 20
143.6441963317811
 30
0.0
 40
1.5
100
AcDbArc
 50
0.0
 51
90.0
  0
ARC
  5
4CC
330
1F
100
AcDbEntity
  8
0
  6
CONTINUOUS
 62
     7
100
AcDbCircle
 10
-28.64406811172535
 20
139.5441963317826
 30
0.0
 40
1.499999999988603
100
AcDbArc
 50
90.0
 51
180.0
  0
ARC
  5
4CD
330
1F
100
AcDbEntity
  8
0
  6
CONTINUOUS
 62
     7
100
AcDbCircle
 10
-28.74406811172526
 20
143.6441963317826
 30
0.0
 40
2.600000000000133
100
AcDbArc
 50
180.0
 51
270.0
  0
ARC
  5
4CE
330
1F
100
AcDbEntity
  8
0
  6
CONTINUOUS
 62
     7
100
AcDbCircle
 10
2.1143234373726
 20
147.1329857707779
 30
0.0
 40
0.4000000000000647
100
AcDbArc
 50
26.56505117705984
 51
99.05269188263267
  0
ARC
  5
4CF
330
1F
100
AcDbEntity
  8
0
  6
CONTINUOUS
 62
     7
100
AcDbCircle
 10
2.25593188827474
 20
146.2441961181417
 30
0.0
 40
1.299999999999838
100
AcDbArc
 50
99.05269188272526
 51
171.1501073721791
  0
ARC
  5
4D0
330
1F
100
AcDbEntity
  8
0
  6
CONTINUOUS
 62
     7
100
AcDbCircle
 10
0.95593185958683
 20
145.9441963317827
 30
0.0
 40
0.4999999999999998
100
AcDbArc
 50
0.0
 51
35.65696575799883
  0
ARC
  5
4D1
330
1F
100
AcDbEntity
  8
0
  6
CONTINUOUS
 62
     7
100
AcDbCircle
 10
0.95593185958683
 20
145.9441963317827
 30
0.0
 40
0.4999999999998824
100
AcDbArc
 50
35.65696575799883
 51
90.0
  0
ARC
  5
4D2
330
1F
100
AcDbEntity
  8
0
  6
CONTINUOUS
 62
     7
100
AcDbCircle
 10
1.10593187393079
 20
143.0941963317812
 30
0.0
 40
0.3499999856560412
100
AcDbArc
 50
180.0
 51
0.0
  0
ARC
  5
4D3
330
1F
100
AcDbEntity
  8
0
  6
CONTINUOUS
 62
     7
100
AcDbCircle
 10
1.35593185919061
 20
145.0720601631422
 30
0.0
 40
2.0
100
AcDbArc
 50
0.0
 51
26.5650511770678
  0
ARC
  5
4D4
330
1F
100
AcDbEntity
  8
0
  6
CONTINUOUS
 62
     7
100
AcDbCircle
 10
-15.44406767409828
 20
104.6441963317826
 30
0.0
 40
2.599999999999895
100
AcDbArc
 50
270.0
 51
0.0
  0
ARC
  5
4D5
330
1F
100
AcDbEntity
  8
0
  6
CONTINUOUS
 62
     7
100
AcDbCircle
 10
-15.54406767409819
 20
104.6441963317826
 30
0.0
 40
1.549999999999997
100
AcDbArc
 50
270.0
 51
90.0
  0
ARC
  5
4D6
330
1F
100
AcDbEntity
  8
0
  6
CONTINUOUS
 62
     7
100
AcDbCircle
 10
-7.3778768049433
 20
102.5441963317827
 30
0.0
 40
0.5
100
AcDbArc
 50
270.0
 51
315.0000000000657
  0
ARC
  5
4D7
330
1F
100
AcDbEntity
  8
0
  6
CONTINUOUS
 62
     7
100
AcDbCircle
 10
-11.34406767409837
 20
104.3441963317828
 30
0.0
 40
1.5
100
AcDbArc
 50
180.0
 51
270.0
  0
ARC
  5
4D8
330
1F
100
AcDbEntity
  8
0
  6
CONTINUOUS
 62
     7
100
AcDbCircle
 10
-8.1234612172143
 20
104.3441963317828
 30
0.0
 40
1.5
100
AcDbArc
 50
270.0
 51
315.0
  0
ARC
  5
4D9
330
1F
100
AcDbEntity
  8
0
  6
CONTINUOUS
 62
     7
100
AcDbCircle
 10
-15.54406767409819
 20
104.6441963317826
 30
0.0
 40
2.69999999999982
100
AcDbArc
 50
0.0
 51
90.0
  0
ARC
  5
4DA
330
1F
100
AcDbEntity
  8
0
  6
CONTINUOUS
 62
     7
100
AcDbCircle
 10
-22.54406811172521
 20
104.6441963317826
 30
0.0
 40
1.550000000000111
100
AcDbArc
 50
90.0
 51
270.0
  0
ARC
  5
4DB
330
1F
100
AcDbEntity
  8
0
  6
CONTINUOUS
 62
     7
100
AcDbCircle
 10
-28.64406811172535
 20
104.6441963317826
 30
0.0
 40
2.700000000000003
100
AcDbArc
 50
90.0
 51
179.9999999999469
  0
ARC
  5
4DC
330
1F
100
AcDbEntity
  8
0
  6
CONTINUOUS
 62
     7
100
AcDbCircle
 10
-28.64406811172535
 20
108.8441963317826
 30
0.0
 40
1.5
100
AcDbArc
 50
180.0
 51
270.0
  0
ARC
  5
4DD
330
1F
100
AcDbEntity
  8
0
  6
CONTINUOUS
 62
     7
100
AcDbCircle
 10
-28.34406811172539
 20
143.8441963317826
 30
0.0
 40
2.600000000000133
100
AcDbArc
 50
0.0
 51
90.0
  0
ARC
  5
4DE
330
1F
100
AcDbEntity
  8
0
  6
CONTINUOUS
 62
     7
100
AcDbCircle
 10
-28.54406811173135
 20
143.8441963317776
 30
0.0
 40
2.799999999995009
100
AcDbArc
 50
270.0000000001256
 51
357.3341182351639
  0
ARC
  5
4DF
330
1F
100
AcDbEntity
  8
0
  6
CONTINUOUS
 62
     7
100
AcDbCircle
 10
-28.74406811172526
 20
104.6441963317827
 30
0.0
 40
2.600000000000133
100
AcDbArc
 50
179.9999999999471
 51
270.0
  0
ARC
  5
4E0
330
1F
100
AcDbEntity
  8
0
  6
CONTINUOUS
 62
     7
100
AcDbCircle
 10
-2.89406814041331
 20
145.7941963317825
 30
0.0
 40
0.6500000000002046
100
AcDbArc
 50
90.0
 51
270.0
  0
ARC
  5
4E1
330
1F
100
AcDbEntity
  8
0
  6
CONTINUOUS
 62
     7
100
AcDbCircle
 10
1.10593187393079
 20
123.3941963317825
 30
0.0
 40
0.3500000000000085
100
AcDbArc
 50
90.0
 51
180.0
  0
ARC
  5
4E2
330
1F
100
AcDbEntity
  8
0
  6
CONTINUOUS
 62
     7
100
AcDbCircle
 10
0.96593188827478
 20
110.8780053896014
 30
0.0
 40
0.4999999999996625
100
AcDbArc
 50
314.9999999999747
 51
0.0
  0
ARC
  5
4E3
330
1F
100
AcDbEntity
  8
0
  6
CONTINUOUS
 62
     7
100
AcDbCircle
 10
-7.36787680494331
 20
102.5441966963838
 30
0.0
 40
0.5
100
AcDbArc
 50
270.0
 51
315.0000000000575
  0
ARC
  5
4E4
330
1F
100
AcDbEntity
  8
0
  6
CONTINUOUS
 62
     7
100
AcDbCircle
 10
1.45593142734765
 20
109.5395282123605
 30
0.0
 40
0.399999999999911
100
AcDbArc
 50
104.4775121857852
 51
134.9999999999078
  0
ARC
  5
4E5
330
1F
100
AcDbEntity
  8
0
  6
CONTINUOUS
 62
     7
100
AcDbCircle
 10
1.25593142734874
 20
107.9253146499873
 30
0.0
 40
0.1999999999996776
100
AcDbArc
 50
314.9999999999912
 51
0.0
  0
ARC
  5
4E6
330
1F
100
AcDbEntity
  8
0
  6
CONTINUOUS
 62
     7
100
AcDbCircle
 10
-2.64528790353324
 20
104.7312021002924
 30
0.0
 40
0.199999999999527
100
AcDbArc
 50
44.99999999996555
 51
135.0000000002188
  0
ARC
  5
4E7
330
1F
100
AcDbEntity
  8
0
  6
CONTINUOUS
 62
     7
100
AcDbCircle
 10
-4.42518689085637
 20
102.2441963317833
 30
0.0
 40
0.2000000000000028
100
AcDbArc
 50
270.0
 51
315.0000000000144
  0
ARC
  5
4E8
330
1F
100
AcDbEntity
  8
0
  6
CONTINUOUS
 62
     7
100
AcDbCircle
 10
-6.03940045322929
 20
102.0441963317833
 30
0.0
 40
0.3999999999999289
100
AcDbArc
 50
135.0000000000936
 51
165.5224878140621
  0
ARC
  5
4E9
330
1F
100
AcDbEntity
  8
0
  6
CONTINUOUS
 62
     7
100
AcDbCircle
 10
0.95593188827479
 20
110.8780053896014
 30
0.0
 40
0.499999999999592
100
AcDbArc
 50
314.9999999999827
 51
0.0
  0
ARC
  5
4EA
330
1F
100
AcDbEntity
  8
0
  6
CONTINUOUS
 62
     7
100
AcDbCircle
 10
-7.3778768049433
 20
102.5441966963842
 30
0.0
 40
0.5
100
AcDbArc
 50
270.0
 51
315.0000000000011
  0
ARC
  5
4EB
330
1F
100
AcDbEntity
  8
0
  6
CONTINUOUS
 62
     7
100
AcDbCircle
 10
-3.21097340522033
 20
103.8826740396053
 30
0.0
 40
0.3000000000001549
100
AcDbArc
 50
314.9999999999923
 51
44.99999999999238
  0
ARC
  5
4EC
330
1F
100
AcDbEntity
  8
0
  6
CONTINUOUS
 62
     7
100
AcDbCircle
 10
-4.48376561135638
 20
102.6098818334704
 30
0.0
 40
0.3000000000006281
100
AcDbArc
 50
225.0000000001592
 51
314.9999999998714
  0
CIRCLE
  5
4ED
330
1F
100
AcDbEntity
  8
0
  6
CONTINUOUS
 62
     7
100
AcDbCircle
 10
-28.54406811172521
 20
143.8441963317826
 30
0.0
 40
1.550000000000182
  0
CIRCLE
  5
4EE
330
1F
100
AcDbEntity
  8
0
  6
CONTINUOUS
 62
     7
100
AcDbCircle
 10
-28.54406811172521
 20
104.6441963317826
 30
0.0
 40
1.549999999999951
  0
SPLINE
  5
4EF
330
1F
100
AcDbEntity
  8
0
  6
CONTINUOUS
 62
     7
100
AcDbSpline
210
0.0
220
0.0
230
1.0
 70
     8
 71
     3
 72
    11
 73
     7
 74
     5
 42
0.0000000001
 43
0.0000000001
 44
0.00000001
 40
0.0
 40
0.0
 40
0.0
 40
0.0
 40
0.0750291401706539
 40
0.1500582803413187
 40
0.2250874205608176
 40
0.3001165607803165
 40
0.3001165607803165
 40
0.3001165607803165
 40
0.3001165607803165
 10
-80.4941846725003
 20
147.5386039899642
 30
0.0
 10
-80.4691749591101
 20
147.5386039434919
 30
0.0
 10
-80.41915553232975
 20
147.5386038505473
 30
0.0
 10
-80.3441263921431
 20
147.5386036353394
 30
0.0
 10
-80.26909725193978
 20
147.5386036918707
 30
0.0
 10
-80.21907782512679
 20
147.5386036842722
 30
0.0
 10
-80.1940681117203
 20
147.538603680473
 30
0.0
 11
-80.4941846725003
 21
147.5386039899642
 31
0.0
 11
-80.4191555323298
 21
147.5386038379155
 31
0.0
 11
-80.3441263921593
 21
147.5386036806292
 31
0.0
 11
-80.2690972519398
 21
147.5386036805492
 31
0.0
 11
-80.1940681117203
 21
147.538603680473
 31
0.0
  0
SPLINE
  5
4F0
330
1F
100
AcDbEntity
  8
0
  6
CONTINUOUS
 62
     7
100
AcDbSpline
210
0.0
220
0.0
230
1.0
 70
     8
 71
     3
 72
    14
 73
    10
 74
     8
 42
0.0000000001
 43
0.0000000001
 44
0.00000001
 40
0.0
 40
0.0
 40
0.0
 40
0.0
 40
0.1962739951083077
 40
0.3796310660261594
 40
0.4516479383348458
 40
0.5701060909954694
 40
0.7486684207913046
 40
0.7778667153858015
 40
0.8070963198312208
 40
0.8070963198312208
 40
0.8070963198312208
 40
0.8070963198312208
 10
-81.28548957694329
 20
147.4182550038643
 30
0.0
 10
-81.22486869387043
 20
147.4434594625302
 30
0.0
 10
-81.10761642898585
 20
147.4922096574129
 30
0.0
 10
-80.95786722561482
 20
147.5157387513216
 30
0.0
 10
-80.83400657144254
 20
147.528694997547
 30
0.0
 10
-80.71112193997075
 20
147.5357968848293
 30
0.0
 10
-80.60239973156564
 20
147.5381270347813
 30
0.0
 10
-80.52340386445039
 20
147.5385844130521
 30
0.0
 10
-80.50392788202552
 20
147.538597461996
 30
0.0
 10
-80.4941846725003
 20
147.5386039899642
 30
0.0
 11
-81.28548957694329
 21
147.4182550038643
 31
0.0
 11
-81.10132308085252
 21
147.4861238691371
 31
0.0
 11
-80.92098198467829
 21
147.5192434175376
 31
0.0
 11
-80.84934861978044
 21
147.5266657440285
 31
0.0
 11
-80.73112200216588
 21
147.5340685015678
 31
0.0
 11
-80.5526120683212
 21
147.5383939080094
 31
0.0
 11
-80.52341424301216
 21
147.5385594509035
 31
0.0
 11
-80.4941846725003
 21
147.5386039899642
 31
0.0
  0
SPLINE
  5
4F1
330
1F
100
AcDbEntity
  8
0
  6
CONTINUOUS
 62
     7
100
AcDbSpline
210
0.0
220
0.0
230
1.0
 70
     8
 71
     3
 72
    21
 73
    17
 74
    15
 42
0.0000000001
 43
0.0000000001
 44
0.00000001
 40
0.0
 40
0.0
 40
0.0
 40
0.0
 40
0.0260914594130125
 40
0.0797847973112881
 40
0.1526847726739488
 40
0.2364195848334052
 40
0.2614060645528715
 40
0.3099866152239779
 40
0.3747830604620018
 40
0.4484797185685968
 40
0.4941178148919452
 40
0.5623678332035321
 40
0.644770433510944
 40
0.6858182773590552
 40
0.7462544330128026
 40
0.8208838992564294
 40
0.8208838992564294
 40
0.8208838992564294
 40
0.8208838992564294
 10
-68.59395965200929
 20
147.5329862199684
 30
0.0
 10
-68.58526247179
 20
147.5329848562766
 30
0.0
 10
-68.55866745654028
 20
147.5329806862578
 30
0.0
 10
-68.50777424511648
 20
147.5324215706511
 30
0.0
 10
-68.43768073821332
 20
147.5308060337105
 30
0.0
 10
-68.37719080865747
 20
147.5282064279484
 30
0.0
 10
-68.32484020997407
 20
147.5252432716354
 30
0.0
 10
-68.27883858162049
 20
147.5218769738629
 30
0.0
 10
-68.21675667267445
 20
147.515946641062
 30
0.0
 10
-68.1558622049457
 20
147.5081239240412
 30
0.0
 10
-68.09416321108225
 20
147.4979200466539
 30
0.0
 10
-68.03007140730847
 20
147.4846278298444
 30
0.0
 10
-67.96833463490705
 20
147.467882232078
 30
0.0
 10
-67.91021605993399
 20
147.4483915162061
 30
0.0
 10
-67.85543156539285
 20
147.4270902607651
 30
0.0
 10
-67.81527350269644
 20
147.4066740227954
 30
0.0
 10
-67.79308447530138
 20
147.3953931881835
 30
0.0
 11
-68.59395965200929
 21
147.5329862199684
 31
0.0
 11
-68.56786821592442
 21
147.5329513297106
 31
0.0
 11
-68.51417770482708
 21
147.5324003734833
 31
0.0
 11
-68.44129840585586
 21
147.5306642313979
 31
0.0
 11
-68.35764060614929
 21
147.5270737835659
 31
0.0
 11
-68.33269523325326
 21
147.5256411147802
 31
0.0
 11
-68.28424259685607
 21
147.5221180579158
 31
0.0
 11
-68.21974501449253
 21
147.5159018545132
 31
0.0
 11
-68.14666480369738
 21
147.5063897461131
 31
0.0
 11
-68.10164441067602
 21
147.4989064281176
 31
0.0
 11
-68.03483053680198
 21
147.4849790716751
 31
0.0
 11
-67.95534596651919
 21
147.4632444995748
 31
0.0
 11
-67.91642657314736
 21
147.4501981857603
 31
0.0
 11
-67.86021864988528
 21
147.4279901180197
 31
0.0
 11
-67.79308447530138
 21
147.3953931881835
 31
0.0
  0
SPLINE
  5
4F2
330
1F
100
AcDbEntity
  8
0
  6
CONTINUOUS
 62
     7
100
AcDbSpline
210
0.0
220
0.0
230
1.0
 70
     8
 71
     3
 72
    11
 73
     7
 74
     5
 42
0.0000000001
 43
0.0000000001
 44
0.00000001
 40
0.0
 40
0.0
 40
0.0
 40
0.0
 40
0.075027114955077
 40
0.1500542299099834
 40
0.2250813448162075
 40
0.3001084597217268
 40
0.3001084597217268
 40
0.3001084597217268
 40
0.3001084597217268
 10
-68.89406811173035
 20
147.532985772197
 30
0.0
 10
-68.86905907341199
 20
147.5329857776931
 30
0.0
 10
-68.81904099677536
 20
147.5329857886852
 30
0.0
 10
-68.74401388183648
 20
147.532985706899
 30
0.0
 10
-68.66898676691477
 20
147.532986018243
 30
0.0
 10
-68.61896869031102
 20
147.5329861527266
 30
0.0
 10
-68.59395965200929
 20
147.5329862199684
 30
0.0
 11
-68.89406811173035
 21
147.532985772197
 31
0.0
 11
-68.81904099677527
 21
147.5329857723061
 31
0.0
 11
-68.74401388182036
 21
147.5329857724207
 31
0.0
 11
-68.66898676691449
 21
147.5329859999732
 31
0.0
 11
-68.59395965200929
 21
147.5329862199684
 31
0.0
  0
SPLINE
  5
4F3
330
1F
100
AcDbEntity
  8
0
  6
CONTINUOUS
 62
     7
100
AcDbSpline
210
0.0
220
0.0
230
1.0
 70
     8
 71
     3
 72
    19
 73
    15
 74
    13
 42
0.0000000001
 43
0.0000000001
 44
0.00000001
 40
0.0
 40
0.0
 40
0.0
 40
0.0
 40
0.0948588971289634
 40
0.1640382342067849
 40
0.205208407765699
 40
0.2415709605955014
 40
0.3129601046855066
 40
0.4068249454617916
 40
0.4722056790448405
 40
0.5635769649758926
 40
0.6782223514131577
 40
0.7633521882053957
 40
0.8307886664322731
 40
0.8748711936290222
 40
0.8748711936290222
 40
0.8748711936290222
 40
0.8748711936290222
 10
-81.6940681117253
 20
146.6986271884583
 30
0.0
 10
-81.69337968606567
 20
146.7302566552689
 30
0.0
 10
-81.69218920069207
 20
146.7849530732282
 30
0.0
 10
-81.68414077753721
 20
146.8529791313861
 30
0.0
 10
-81.67541453975039
 20
146.9011072654162
 30
0.0
 10
-81.66476509952587
 20
146.9496070045664
 30
0.0
 10
-81.64572849081358
 20
147.0141485607037
 30
0.0
 10
-81.6167156776569
 20
147.0855673790009
 30
0.0
 10
-81.57664103458879
 20
147.1590052483131
 30
0.0
 10
-81.52420006949929
 20
147.2330465510829
 30
0.0
 10
-81.45681938361767
 20
147.3035320924555
 30
0.0
 10
-81.3867604332136
 20
147.3588049207707
 30
0.0
 10
-81.3314992279818
 20
147.394281473564
 30
0.0
 10
-81.2985242923414
 20
147.4114632082845
 30
0.0
 10
-81.28548957694329
 20
147.4182550038643
 30
0.0
 11
-81.6940681117253
 21
146.6986271884583
 31
0.0
 11
-81.6902495053216
 21
146.7934091941854
 31
0.0
 11
-81.68216366523856
 21
146.8621143604299
 31
0.0
 11
-81.6748655601682
 21
146.902632515043
 31
0.0
 11
-81.66698873278683
 21
146.9381316817755
 31
0.0
 11
-81.64688302303047
 21
147.0066311002336
 31
0.0
 11
-81.61124537745422
 21
147.0934675358568
 31
0.0
 11
-81.57988834224778
 21
147.1508380567444
 31
0.0
 11
-81.52714892799536
 21
147.2254521712068
 31
0.0
 11
-81.44796524269032
 21
147.3083587970751
 31
0.0
 11
-81.38122707398838
 21
147.3612086405052
 31
0.0
 11
-81.32433801708984
 21
147.3974207075663
 31
0.0
 11
-81.28548957694329
 21
147.4182550038643
 31
0.0
  0
SPLINE
  5
4F4
330
1F
100
AcDbEntity
  8
0
  6
CONTINUOUS
 62
     7
100
AcDbSpline
210
0.0
220
0.0
230
1.0
 70
     8
 71
     3
 72
    21
 73
    17
 74
    15
 42
0.0000000001
 43
0.0000000001
 44
0.00000001
 40
0.0
 40
0.0
 40
0.0
 40
0.0
 40
0.0463627188692089
 40
0.0717263398531945
 40
0.1363854855125967
 40
0.1770831959306997
 40
0.2109327368316458
 40
0.2655483540855693
 40
0.337041419670523
 40
0.4222557782178928
 40
0.475714714692293
 40
0.5480565939682499
 40
0.638740636531231
 40
0.7296754849288903
 40
0.8118657870160156
 40
0.8830171459026267
 40
0.8830171459026267
 40
0.8830171459026267
 40
0.8830171459026267
 10
-67.79308447530138
 20
147.3953931881835
 30
0.0
 10
-67.77961999932187
 20
147.3877979143754
 30
0.0
 10
-67.75878952165341
 20
147.3760474993063
 30
0.0
 10
-67.72056327997237
 20
147.3514202846017
 30
0.0
 10
-67.68526241747952
 20
147.3257747642789
 30
0.0
 10
-67.64977305677482
 20
147.2958480824965
 30
0.0
 10
-67.61823615951482
 20
147.2665151759704
 30
0.0
 10
-67.58165790980082
 20
147.227643015915
 30
0.0
 10
-67.53788250671903
 20
147.1723186717472
 30
0.0
 10
-67.50052711776061
 20
147.1128439012809
 30
0.0
 10
-67.46888939149343
 20
147.0499629773327
 30
0.0
 10
-67.44203205495107
 20
146.9828660283132
 30
0.0
 10
-67.41862762331871
 20
146.9013352058449
 30
0.0
 10
-67.40305244870713
 20
146.8146691752037
 30
0.0
 10
-67.39521267781521
 20
146.73351713142
 30
0.0
 10
-67.394430873261
 20
146.6823952417602
 30
0.0
 10
-67.39406811172535
 20
146.65867440885
 30
0.0
 11
-67.79308447530138
 21
147.3953931881835
 31
0.0
 11
-67.75299477847821
 21
147.3721054680381
 31
0.0
 11
-67.7316501855853
 21
147.3584043139387
 31
0.0
 11
-67.67939118417101
 21
147.3203280498286
 31
0.0
 11
-67.64826662086125
 21
147.2941065854901
 31
0.0
 11
-67.62350710901278
 21
147.271025034584
 31
0.0
 11
-67.58602646254006
 21
147.2313001458112
 31
0.0
 11
-67.54168402448171
 21
147.175219787273
 31
0.0
 11
-67.49633913787625
 21
147.1030718270705
 31
0.0
 11
-67.4723082282713
 21
147.0553185730187
 31
0.0
 11
-67.44533174326101
 21
146.9881946819391
 31
0.0
 11
-67.42015030584139
 21
146.901076998401
 31
0.0
 11
-67.40382320889806
 21
146.8116198994177
 31
0.0
 11
-67.39604763874325
 21
146.7297982258468
 31
0.0
 11
-67.39406811172535
 21
146.65867440885
 31
0.0
  0
SPLINE
  5
4F5
330
1F
100
AcDbEntity
  8
0
  6
CONTINUOUS
 62
     7
100
AcDbSpline
210
0.0
220
0.0
230
1.0
 70
     8
 71
     3
 72
    14
 73
    10
 74
     8
 42
0.0000000001
 43
0.0000000001
 44
0.00000001
 40
0.0
 40
0.0
 40
0.0
 40
0.0
 40
0.0292296043549524
 40
0.0584278988591486
 40
0.2369902283914171
 40
0.355448381179177
 40
0.4274652539741914
 40
0.6108223249604379
 40
0.807096319832035
 40
0.807096319832035
 40
0.807096319832035
 40
0.807096319832035
 10
53.90604844904965
 20
147.5386039899643
 30
0.0
 10
53.91579165854473
 20
147.5385974619961
 30
0.0
 10
53.93526764090934
 20
147.5385844130524
 30
0.0
 10
54.01426350787644
 20
147.538127034784
 30
0.0
 10
54.12298571620613
 20
147.53579688484
 30
0.0
 10
54.24587034779501
 20
147.5286949975623
 30
0.0
 10
54.36973100219415
 20
147.5157387513253
 30
0.0
 10
54.51948020566696
 20
147.4922096573731
 30
0.0
 10
54.63673247049519
 20
147.443459462504
 30
0.0
 10
54.69735335349265
 20
147.4182550038643
 30
0.0
 11
53.90604844904965
 21
147.5386039899643
 31
0.0
 11
53.93527801947104
 21
147.5385594509039
 31
0.0
 11
53.96447584468979
 21
147.538393908011
 31
0.0
 11
54.14298577827125
 21
147.5340685015869
 31
0.0
 11
54.26121239601357
 21
147.5266657440535
 31
0.0
 11
54.33284576139567
 21
147.5192434175174
 31
0.0
 11
54.51318685763221
 21
147.4861238690776
 31
0.0
 11
54.69735335349265
 21
147.4182550038643
 31
0.0
  0
SPLINE
  5
4F6
330
1F
100
AcDbEntity
  8
0
  6
CONTINUOUS
 62
     7
100
AcDbSpline
210
0.0
220
0.0
230
1.0
 70
     8
 71
     3
 72
    11
 73
     7
 74
     5
 42
0.0000000001
 43
0.0000000001
 44
0.00000001
 40
0.0
 40
0.0
 40
0.0
 40
0.0
 40
0.0750291402189305
 40
0.150058280437861
 40
0.2250874206086039
 40
0.3001165607791796
 40
0.3001165607791796
 40
0.3001165607791796
 40
0.3001165607791796
 10
53.60593188827079
 20
147.5386036804731
 30
0.0
 10
53.63094160167709
 20
147.5386036842723
 30
0.0
 10
53.6809610284897
 20
147.5386036918708
 30
0.0
 10
53.75599016869264
 20
147.5386036353393
 30
0.0
 10
53.83101930887916
 20
147.5386038505478
 30
0.0
 10
53.88103873565951
 20
147.5386039434921
 30
0.0
 10
53.90604844904965
 20
147.5386039899643
 30
0.0
 11
53.60593188827079
 21
147.5386036804731
 31
0.0
 11
53.68096102848972
 21
147.5386036805493
 31
0.0
 11
53.75599016870865
 21
147.5386036806293
 31
0.0
 11
53.83101930887923
 21
147.5386038379158
 31
0.0
 11
53.90604844904965
 21
147.5386039899643
 31
0.0
  0
SPLINE
  5
4F7
330
1F
100
AcDbEntity
  8
0
  6
CONTINUOUS
 62
     7
100
AcDbSpline
210
0.0
220
0.0
230
1.0
 70
     8
 71
     3
 72
    11
 73
     7
 74
     5
 42
0.0000000001
 43
0.0000000001
 44
0.00000001
 40
0.0
 40
0.0
 40
0.0
 40
0.0
 40
0.0750271149059457
 40
0.1500542298117435
 40
0.2250813447671899
 40
0.3001084597226363
 40
0.3001084597226363
 40
0.3001084597226363
 40
0.3001084597226363
 10
42.00582342855864
 20
147.5329862199685
 30
0.0
 10
42.03083246686053
 20
147.5329861527267
 30
0.0
 10
42.08085054346424
 20
147.5329860182432
 30
0.0
 10
42.15587765838617
 20
147.5329857068991
 30
0.0
 10
42.23090477332519
 20
147.5329857886853
 30
0.0
 10
42.28092284996214
 20
147.5329857776932
 30
0.0
 10
42.30593188828061
 20
147.5329857721971
 30
0.0
 11
42.00582342855864
 21
147.5329862199685
 31
0.0
 11
42.08085054346427
 21
147.5329859999734
 31
0.0
 11
42.15587765836972
 21
147.5329857724208
 31
0.0
 11
42.23090477332516
 21
147.5329857723062
 31
0.0
 11
42.30593188828061
 21
147.5329857721971
 31
0.0
  0
SPLINE
  5
4F8
330
1F
100
AcDbEntity
  8
0
  6
CONTINUOUS
 62
     7
100
AcDbSpline
210
0.0
220
0.0
230
1.0
 70
     8
 71
     3
 72
    21
 73
    17
 74
    15
 42
0.0000000001
 43
0.0000000001
 44
0.00000001
 40
0.0
 40
0.0
 40
0.0
 40
0.0
 40
0.0746294665660901
 40
0.1350656226171882
 40
0.1761134670032345
 40
0.2585160675968771
 40
0.3267660859708777
 40
0.3724041818577488
 40
0.4461008401646708
 40
0.5108972855394492
 40
0.5594778362249733
 40
0.5844643157778042
 40
0.6681991274117824
 40
0.7410991022755745
 40
0.7947924398480053
 40
0.8208838992552203
 40
0.8208838992552203
 40
0.8208838992552203
 40
0.8208838992552203
 10
41.20494825185165
 20
147.3953931881836
 30
0.0
 10
41.2271372793439
 20
147.406674022842
 30
0.0
 10
41.26729534225672
 20
147.4270902609164
 30
0.0
 10
41.32207983720321
 20
147.4483915164753
 30
0.0
 10
41.38019841258029
 20
147.4678822324239
 30
0.0
 10
41.44193518528901
 20
147.4846278301881
 30
0.0
 10
41.50602698904919
 20
147.4979200469178
 30
0.0
 10
41.56772598286484
 20
147.508123924238
 30
0.0
 10
41.62862045056593
 20
147.5159466412134
 30
0.0
 10
41.6907023596323
 20
147.5218769739865
 30
0.0
 10
41.73670398798259
 20
147.5252432717331
 30
0.0
 10
41.78905458644208
 20
147.5282064280048
 30
0.0
 10
41.84954451560172
 20
147.5308060337351
 30
0.0
 10
41.91963802205515
 20
147.5324215706562
 30
0.0
 10
41.97053123320212
 20
147.5329806862572
 30
0.0
 10
41.99712624834127
 20
147.5329848562765
 30
0.0
 10
42.00582342855864
 20
147.5329862199685
 30
0.0
 11
41.20494825185165
 21
147.3953931881836
 31
0.0
 11
41.27208242673158
 21
147.4279901181484
 31
0.0
 11
41.32829035037575
 21
147.4501981860032
 31
0.0
 11
41.36720974426976
 21
147.4632444999525
 31
0.0
 11
41.44669431485548
 21
147.4849790720302
 31
0.0
 11
41.51350818880699
 21
147.4989064284069
 31
0.0
 11
41.55852858140474
 21
147.5063897462889
 31
0.0
 11
41.63160879240507
 21
147.5159018546647
 31
0.0
 11
41.69610637490863
 21
147.5221180580401
 31
0.0
 11
41.74455901132222
 21
147.5256411148777
 31
0.0
 11
41.76950438405265
 21
147.5270737836405
 31
0.0
 11
41.85316218323531
 21
147.5306642314248
 31
0.0
 11
41.92604148170803
 21
147.5324003734885
 31
0.0
 11
41.97973199247957
 21
147.5329513297103
 31
0.0
 11
42.00582342855864
 21
147.5329862199685
 31
0.0
  0
SPLINE
  5
4F9
330
1F
100
AcDbEntity
  8
0
  6
CONTINUOUS
 62
     7
100
AcDbSpline
210
0.0
220
0.0
230
1.0
 70
     8
 71
     3
 72
    21
 73
    17
 74
    15
 42
0.0000000001
 43
0.0000000001
 44
0.00000001
 40
0.0
 40
0.0
 40
0.0
 40
0.0
 40
0.0711513597463341
 40
0.1533416613609987
 40
0.2442765083806045
 40
0.3349605502436469
 40
0.4073024293023865
 40
0.4607613660607852
 40
0.5459757227242512
 40
0.6174687872971795
 40
0.6720844052355723
 40
0.7059339494112117
 40
0.7466316580551969
 40
0.8112908055037242
 40
0.8366544199248217
 40
0.8830171459023153
 40
0.8830171459023153
 40
0.8830171459023153
 40
0.8830171459023153
 10
40.8059318882747
 20
146.6586744088501
 30
0.0
 10
40.80629464981946
 20
146.6823952420471
 30
0.0
 10
40.80707645438581
 20
146.7335171318362
 30
0.0
 10
40.81491622529168
 20
146.814669175286
 30
0.0
 10
40.83049139973018
 20
146.9013352050891
 30
0.0
 10
40.85389583102504
 20
146.9828660268531
 30
0.0
 10
40.88075316732532
 20
147.0499629757408
 30
0.0
 10
40.91239089318381
 20
147.1128438992177
 30
0.0
 10
40.94974628146183
 20
147.1723186690681
 30
0.0
 10
40.9935216837621
 20
147.227643012912
 30
0.0
 10
41.03009993395405
 20
147.2665151738675
 30
0.0
 10
41.06163683162792
 20
147.2958480810236
 30
0.0
 10
41.09712619311929
 20
147.325774763571
 30
0.0
 10
41.13242705379724
 20
147.3514202826829
 30
0.0
 10
41.17065329602121
 20
147.3760474979733
 30
0.0
 10
41.19148377382356
 20
147.3877979131798
 30
0.0
 10
41.20494825185165
 20
147.3953931881836
 30
0.0
 11
40.8059318882747
 21
146.6586744088501
 31
0.0
 11
40.80791141534318
 21
146.7297982267056
 31
0.0
 11
40.81568698549855
 21
146.8116198998018
 31
0.0
 11
40.83201408216564
 21
146.9010769974347
 31
0.0
 11
40.85719551925251
 21
146.9881946803404
 31
0.0
 11
40.88417200402429
 21
147.0553185712818
 31
0.0
 11
40.9082029136498
 21
147.1030718256411
 31
0.0
 11
40.95354779899709
 21
147.1752197844093
 31
0.0
 11
40.99789023611402
 21
147.2313001424017
 31
0.0
 11
41.03537088283404
 21
147.2710250318822
 31
0.0
 11
41.06013039699064
 21
147.2941065851148
 31
0.0
 11
41.09125495889085
 21
147.3203280483728
 31
0.0
 11
41.14351396168172
 21
147.3584043136318
 31
0.0
 11
41.16485854898792
 21
147.3721054642853
 31
0.0
 11
41.20494825185165
 21
147.3953931881836
 31
0.0
  0
SPLINE
  5
4FA
330
1F
100
AcDbEntity
  8
0
  6
CONTINUOUS
 62
     7
100
AcDbSpline
210
0.0
220
0.0
230
1.0
 70
     8
 71
     3
 72
    19
 73
    15
 74
    13
 42
0.0000000001
 43
0.0000000001
 44
0.00000001
 40
0.0
 40
0.0
 40
0.0
 40
0.0
 40
0.0440825278009983
 40
0.1115190048696162
 40
0.196648839432335
 40
0.3112942273966032
 40
0.4026655138179213
 40
0.4680462463416207
 40
0.5619110888458092
 40
0.6333002337455512
 40
0.6696627849493354
 40
0.7108329615035917
 40
0.7800122985624034
 40
0.8748711936281443
 40
0.8748711936281443
 40
0.8748711936281443
 40
0.8748711936281443
 10
54.69735335349265
 20
147.4182550038643
 30
0.0
 10
54.71038806906726
 20
147.4114632081871
 30
0.0
 10
54.74336300453831
 20
147.394281473541
 30
0.0
 10
54.79862420899159
 20
147.3588049212612
 30
0.0
 10
54.86868315902009
 20
147.3035320934918
 30
0.0
 10
54.93606384506208
 20
147.2330465523513
 30
0.0
 10
54.98850481044564
 20
147.1590052493953
 30
0.0
 10
55.02857945385139
 20
147.0855673798312
 30
0.0
 10
55.05759226726139
 20
147.0141485610939
 30
0.0
 10
55.07662887606063
 20
146.9496070046632
 30
0.0
 10
55.08727831643341
 20
146.9011072648029
 30
0.0
 10
55.09600455423993
 20
146.8529791303168
 30
0.0
 10
55.1040529773222
 20
146.784953071846
 30
0.0
 10
55.10524346264857
 20
146.7302566545811
 30
0.0
 10
55.10593188827465
 20
146.6986271884584
 30
0.0
 11
54.69735335349265
 21
147.4182550038643
 31
0.0
 11
54.7362017941616
 21
147.3974207072619
 31
0.0
 11
54.79309085008587
 21
147.3612086408272
 31
0.0
 11
54.85982901716079
 21
147.3083587989338
 31
0.0
 11
54.93901270375348
 21
147.2254521721838
 31
0.0
 11
54.99175211839999
 21
147.1508380573996
 31
0.0
 11
55.02310915321073
 21
147.0934675375029
 31
0.0
 11
55.05874679954911
 21
147.0066311003247
 31
0.0
 11
55.07885250951637
 21
146.9381316810847
 31
0.0
 11
55.08672933653679
 21
146.9026325159376
 31
0.0
 11
55.0940274420935
 21
146.8621143583685
 31
0.0
 11
55.10211328204385
 21
146.7934091921276
 31
0.0
 11
55.10593188827465
 21
146.6986271884584
 31
0.0
  0
SPLINE
  5
4FB
330
1F
100
AcDbEntity
  8
0
  6
CONTINUOUS
 62
     7
100
AcDbSpline
210
0.0
220
0.0
230
1.0
 70
     8
 71
     3
 72
    13
 73
     9
 74
     7
 42
0.0000000001
 43
0.0000000001
 44
0.00000001
 40
0.0
 40
0.0
 40
0.0
 40
0.0
 40
0.7845036490975155
 40
1.524328631762226
 40
2.179598006012388
 40
2.721047922334728
 40
3.139622837661435
 40
3.466884184704699
 40
3.466884184704699
 40
3.466884184704699
 40
3.466884184704699
 10
40.8059318882747
 20
139.47116651328
 30
0.0
 10
40.81354669666483
 20
139.2094637638467
 30
0.0
 10
40.82834263861847
 20
138.7009626314032
 30
0.0
 10
40.94691252191371
 20
137.9828903635186
 30
0.0
 10
41.12723317466878
 20
137.3579632616863
 30
0.0
 10
41.36575606103786
 20
136.8796643357886
 30
0.0
 10
41.64871541151415
 20
136.5256935365747
 30
0.0
 10
41.89699198910319
 20
136.4690504408466
 30
0.0
 10
42.00593188827475
 20
136.4441963317828
 30
0.0
 11
40.8059318882747
 21
139.47116651328
 31
0.0
 11
40.84682120575344
 21
138.68772919022
 31
0.0
 11
40.96670140373328
 21
137.9576814225314
 31
0.0
 11
41.15740397707341
 21
137.3307759421345
 31
0.0
 11
41.40593188827472
 21
136.8497334396054
 31
0.0
 11
41.69534911695477
 21
136.5473386190745
 31
0.0
 11
42.00593188827475
 21
136.4441963317828
 31
0.0
  0
SPLINE
  5
4FC
330
1F
100
AcDbEntity
  8
0
  6
CONTINUOUS
 62
     7
100
AcDbSpline
210
0.0
220
0.0
230
1.0
 70
     8
 71
     3
 72
    13
 73
     9
 74
     7
 42
0.0000000001
 43
0.0000000001
 44
0.00000001
 40
0.0
 40
0.0
 40
0.0
 40
0.0
 40
0.3272613470433375
 40
0.7458362623699861
 40
1.287286178692282
 40
1.942555552942473
 40
2.682380535607265
 40
3.466884184704747
 40
3.466884184704747
 40
3.466884184704747
 40
3.466884184704747
 10
53.90593188827461
 20
136.4441963317828
 30
0.0
 10
54.01487178744622
 20
136.4690504408466
 30
0.0
 10
54.26314836503528
 20
136.5256935365746
 30
0.0
 10
54.54610771551147
 20
136.8796643357886
 30
0.0
 10
54.78463060188061
 20
137.3579632616862
 30
0.0
 10
54.96495125463579
 20
137.9828903635185
 30
0.0
 10
55.08352113793099
 20
138.7009626314032
 30
0.0
 10
55.09831707988456
 20
139.2094637638467
 30
0.0
 10
55.10593188827465
 20
139.47116651328
 30
0.0
 11
53.90593188827461
 21
136.4441963317828
 31
0.0
 11
54.21651465959467
 21
136.5473386190745
 31
0.0
 11
54.50593188827463
 21
136.8497334396054
 31
0.0
 11
54.75445979947595
 21
137.3307759421344
 31
0.0
 11
54.94516237281618
 21
137.9576814225313
 31
0.0
 11
55.06504257079601
 21
138.68772919022
 31
0.0
 11
55.10593188827465
 21
139.47116651328
 31
0.0
  0
SPLINE
  5
4FD
330
1F
100
AcDbEntity
  8
0
  6
CONTINUOUS
 62
     7
100
AcDbSpline
210
0.0
220
0.0
230
1.0
 70
     8
 71
     3
 72
    17
 73
    13
 74
    11
 42
0.0000000001
 43
0.0000000001
 44
0.00000001
 40
0.0
 40
0.0
 40
0.0
 40
0.0
 40
0.0286657320575027
 40
0.0607414324510776
 40
0.0938663201640711
 40
0.1333092856898766
 40
0.2058017533091713
 40
0.2785567403699515
 40
0.3455691503157384
 40
0.4456833422235152
 40
0.5295393111607026
 40
0.6137284033259218
 40
0.6137284033259218
 40
0.6137284033259218
 40
0.6137284033259218
 10
1.345931718696647
 20
206.6310227958586
 30
0.0
 10
1.336373921158303
 20
206.6308216661159
 30
0.0
 10
1.316121366212495
 20
206.6303954809881
 30
0.0
 10
1.285016675707443
 20
206.6264810612414
 30
0.0
 10
1.250884435494429
 20
206.6190781523846
 30
0.0
 10
1.204869356676226
 20
206.6039196584277
 30
0.0
 10
1.14965838642923
 20
206.5757707630261
 30
0.0
 10
1.093349641356077
 20
206.5323098811081
 30
0.0
 10
1.038948379352615
 20
206.4732317694493
 30
0.0
 10
0.9956296595308802
 20
206.4007932192181
 30
0.0
 10
0.9665655000771106
 20
206.315261716755
 30
0.0
 10
0.9631051426158816
 20
206.2591395206692
 30
0.0
 10
0.9613715340747149
 20
206.2310227958586
 30
0.0
 11
1.345931718696647
 21
206.6310227958586
 31
0.0
 11
1.317286061617722
 21
206.6299501706169
 31
0.0
 11
1.285446338657721
 21
206.6260665386095
 31
0.0
 11
1.25308076422084
 21
206.6190147461162
 31
0.0
 11
1.215607105855725
 21
206.6067073313509
 31
0.0
 11
1.150954554952278
 21
206.5739170046796
 31
0.0
 11
1.093284250599709
 21
206.5295613495937
 31
0.0
 11
1.047911330926183
 21
206.4802464304815
 31
0.0
 11
0.9963219026117258
 21
206.394447932199
 31
0.0
 11
0.9702752545570943
 21
206.3147397415815
 31
0.0
 11
0.9613715340747149
 21
206.2310227958586
 31
0.0
  0
SPLINE
  5
4FE
330
1F
100
AcDbEntity
  8
0
  6
CONTINUOUS
 62
     7
100
AcDbSpline
210
0.0
220
0.0
230
1.0
 70
     8
 71
     3
 72
    17
 73
    13
 74
    11
 42
0.0000000001
 43
0.0000000001
 44
0.00000001
 40
0.0
 40
0.0
 40
0.0
 40
0.0
 40
0.098815083806368
 40
0.1680128824114639
 40
0.2339153025254132
 40
0.3351342743546785
 40
0.4078996508657553
 40
0.4803909627017106
 40
0.5197727138179438
 40
0.5529521803050053
 40
0.5850181536923774
 40
0.6136885485977712
 40
0.6136885485977712
 40
0.6136885485977712
 40
0.6136885485977712
 10
0.9613715361438153
 20
192.7310227958586
 30
0.0
 10
0.9637097244736255
 20
192.6979905089091
 30
0.0
 10
0.9676852891928951
 20
192.6418265152226
 30
0.0
 10
0.9943374612459909
 20
192.5678401459676
 30
0.0
 10
1.032014315782424
 20
192.4984436535116
 30
0.0
 10
1.084310373540163
 20
192.4367023372139
 30
0.0
 10
1.149661885256757
 20
192.3862854005048
 30
0.0
 10
1.204864270818335
 20
192.3581329973384
 30
0.0
 10
1.250873938831007
 20
192.3429722029728
 30
0.0
 10
1.285000451620027
 20
192.3355664366707
 30
0.0
 10
1.31612148853721
 20
192.3316500685119
 30
0.0
 10
1.33637236601363
 20
192.3312239456827
 30
0.0
 10
1.345931723458762
 20
192.3310227958587
 30
0.0
 11
0.9613715361438153
 21
192.7310227958586
 31
0.0
 11
0.9736327469601349
 21
192.6329713629421
 31
0.0
 11
0.9963253232147053
 21
192.567600250708
 31
0.0
 11
1.027905861814872
 21
192.5097573725068
 31
0.0
 11
1.093289287676726
 21
192.4324897345156
 31
0.0
 11
1.150967762786763
 21
192.3881276614376
 31
0.0
 11
1.215618950783664
 21
192.3553372027295
 31
0.0
 11
1.253033185658467
 21
192.3430450365366
 31
0.0
 11
1.285451365437666
 21
192.33597831055
 31
0.0
 11
1.317281409297095
 21
192.3320956623318
 31
0.0
 11
1.345931723458762
 21
192.3310227958587
 31
0.0
  0
SPLINE
  5
4FF
330
1F
100
AcDbEntity
  8
0
  6
CONTINUOUS
 62
     7
100
AcDbSpline
210
0.0
220
0.0
230
1.0
 70
     8
 71
     3
 72
    11
 73
     7
 74
     5
 42
0.0000000001
 43
0.0000000001
 44
0.00000001
 40
0.0
 40
0.0
 40
0.0
 40
0.0
 40
0.0363879313002683
 40
0.0880077295419078
 40
0.1555394104415436
 40
0.2323577022170732
 40
0.2323577022170732
 40
0.2323577022170732
 40
0.2323577022170732
 10
2.136840950437772
 20
193.8310227958587
 30
0.0
 10
2.124978781088378
 20
193.8350339806796
 30
0.0
 10
2.096288977777848
 20
193.8447354189381
 30
0.0
 10
2.07180915436107
 20
193.8948715006333
 30
0.0
 10
2.053752892439661
 20
193.9568035271502
 30
0.0
 10
2.05161501951203
 20
194.0052442446132
 30
0.0
 10
2.050477314091722
 20
194.0310227958586
 30
0.0
 11
2.136840950437772
 21
193.8310227958587
 31
0.0
 11
2.103791118137607
 21
193.8462474511666
 31
0.0
 11
2.075772637529667
 21
193.8896014396213
 31
0.0
 11
2.057051597064302
 21
193.954486342095
 31
0.0
 11
2.050477314091722
 21
194.0310227958586
 31
0.0
  0
SPLINE
  5
500
330
1F
100
AcDbEntity
  8
0
  6
CONTINUOUS
 62
     7
100
AcDbSpline
210
0.0
220
0.0
230
1.0
 70
     8
 71
     3
 72
    11
 73
     7
 74
     5
 42
0.0000000001
 43
0.0000000001
 44
0.00000001
 40
0.0
 40
0.0
 40
0.0
 40
0.0
 40
0.076818291775558
 40
0.1443499726751391
 40
0.1959697709168023
 40
0.2323577022171066
 40
0.2323577022171066
 40
0.2323577022171066
 40
0.2323577022171066
 10
2.050477314091722
 20
204.9310227958586
 30
0.0
 10
2.051615019512026
 20
204.956801347104
 30
0.0
 10
2.05375289243965
 20
205.0052420645669
 30
0.0
 10
2.071809154361086
 20
205.0671740910839
 30
0.0
 10
2.096288977777858
 20
205.1173101727791
 30
0.0
 10
2.124978781088378
 20
205.1270116110376
 30
0.0
 10
2.136840950437772
 20
205.1310227958586
 30
0.0
 11
2.050477314091722
 21
204.9310227958586
 31
0.0
 11
2.057051597064302
 21
205.0075592496222
 31
0.0
 11
2.075772637529667
 21
205.0724441520959
 31
0.0
 11
2.103791118137607
 21
205.1157981405506
 31
0.0
 11
2.136840950437772
 21
205.1310227958586
 31
0.0
  0
SPLINE
  5
501
330
1F
100
AcDbEntity
  8
0
  6
CONTINUOUS
 62
     7
100
AcDbSpline
210
0.0
220
0.0
230
1.0
 70
     8
 71
     3
 72
    23
 73
    19
 74
    17
 42
0.0000000001
 43
0.0000000001
 44
0.00000001
 40
0.0
 40
0.0
 40
0.0
 40
0.0
 40
0.1428756657350775
 40
0.2881321067621659
 40
0.45678206615025
 40
0.5894224528472944
 40
0.8955286142218468
 40
1.107380894021352
 40
1.392494189428772
 40
1.683761042114315
 40
2.042853624193613
 40
2.260014046465934
 40
2.581367761396856
 40
2.778049662818821
 40
2.931555901039307
 40
3.079365320315491
 40
3.244181674786063
 40
3.367474327711061
 40
3.367474327711061
 40
3.367474327711061
 40
3.367474327711061
 10
43.75593188827475
 20
103.2462779365374
 30
0.0
 10
43.75328333076199
 20
103.1985810971713
 30
0.0
 10
43.74794208211685
 20
103.1023926332943
 30
0.0
 10
43.70319935091245
 20
102.9554537110622
 30
0.0
 10
43.63410094586825
 20
102.8226184523473
 30
0.0
 10
43.510274311678
 20
102.6616093226748
 30
0.0
 10
43.33968115147768
 20
102.5219954498027
 30
0.0
 10
43.0997162651678
 20
102.4013210391287
 30
0.0
 10
42.84550994731023
 20
102.3276230132465
 30
0.0
 10
42.53343965473974
 20
102.2988106723038
 30
0.0
 10
42.24314581927818
 20
102.3318265276106
 30
0.0
 10
41.95716512293679
 20
102.4224670358116
 30
0.0
 10
41.74001132177175
 20
102.5429731537211
 30
0.0
 10
41.57419728890267
 20
102.695293283215
 30
0.0
 10
41.47390548788707
 20
102.82867112496
 30
0.0
 10
41.40368760182938
 20
102.9679563021213
 30
0.0
 10
41.36260062168216
 20
103.1090163380021
 30
0.0
 10
41.35793043595387
 20
103.205142111721
 30
0.0
 10
41.35593188827465
 20
103.2462779365374
 30
0.0
 11
43.75593188827475
 21
103.2462779365374
 31
0.0
 11
43.74235989013889
 21
103.1040483449404
 31
0.0
 11
43.70167378819178
 21
102.9646063327339
 31
0.0
 11
43.62389126911117
 21
102.8149644651731
 31
0.0
 11
43.54329824499473
 21
102.7096162964804
 31
0.0
 11
43.30834591152649
 21
102.5134062482431
 31
0.0
 11
43.11946756969883
 21
102.4174564673956
 31
0.0
 11
42.84592975262014
 21
102.3370409598992
 31
0.0
 11
42.5559318882747
 21
102.3098818334695
 31
0.0
 11
42.19923687008329
 21
102.3513082320797
 31
0.0
 11
41.99239620685171
 21
102.4174564673956
 31
0.0
 11
41.71284611880583
 21
102.5759492381249
 31
0.0
 11
41.56856553155467
 21
102.7096162964804
 31
0.0
 11
41.47672712211241
 21
102.8326198400217
 31
0.0
 11
41.41018998835762
 21
102.9646063327339
 31
0.0
 11
41.36604525596257
 21
103.1234007699877
 31
0.0
 11
41.35593188827465
 21
103.2462779365374
 31
0.0
  0
SPLINE
  5
502
330
1F
100
AcDbEntity
  8
0
  6
CONTINUOUS
 62
     7
100
AcDbSpline
210
0.0
220
0.0
230
1.0
 70
    11
 71
     3
 72
    21
 73
    17
 74
    15
 42
0.0000000001
 43
0.0000000001
 44
0.00000001
 40
0.0
 40
0.0
 40
0.0
 40
0.0
 40
0.3955463999838176
 40
0.7550570301933105
 40
1.063787597280009
 40
1.347009547727719
 40
1.655743131685211
 40
2.015250531258831
 40
2.410798238016255
 40
2.806345944774101
 40
3.165853344348147
 40
3.474586928305691
 40
3.757808878753401
 40
4.0665394458401
 40
4.426050076049964
 40
4.821596476033361
 40
4.821596476033361
 40
4.821596476033361
 40
4.821596476033361
 10
42.5559318882747
 20
102.3977497991135
 30
0.0
 10
42.68841100368809
 20
102.4094359841211
 30
0.0
 10
42.9412998871434
 20
102.4317436985802
 30
0.0
 10
43.26193852743496
 20
102.6067569198229
 30
0.0
 10
43.46182680392996
 20
102.8727359118942
 30
0.0
 10
43.46184138586349
 20
103.1953851370867
 30
0.0
 10
43.26192812471145
 20
103.4625769684086
 30
0.0
 10
42.941304933283
 20
103.6316266874957
 30
0.0
 10
42.55593188827505
 20
103.6909218428832
 30
0.0
 10
42.170558843267
 20
103.6316266874957
 30
0.0
 10
41.84993565183809
 20
103.4625769684087
 30
0.0
 10
41.65002239068588
 20
103.1953851370867
 30
0.0
 10
41.65003697261947
 20
102.8727359118942
 30
0.0
 10
41.84992524911448
 20
102.6067569198228
 30
0.0
 10
42.17056388940622
 20
102.4317436985803
 30
0.0
 10
42.42345277286147
 20
102.4094359841212
 30
0.0
 10
42.5559318882747
 20
102.3977497991135
 30
0.0
 11
42.5559318882747
 21
102.3977497991135
 31
0.0
 11
42.94642460611303
 21
102.460776712852
 31
0.0
 11
43.25958022249574
 21
102.637359421976
 31
0.0
 11
43.43336106065699
 21
102.892535407017
 31
0.0
 11
43.43336700923817
 21
103.1757573574022
 31
0.0
 11
43.25957545210423
 21
103.4309296923686
 31
0.0
 11
42.94642725348069
 21
103.6075189787
 31
0.0
 11
42.5559318882752
 21
103.6705376907948
 31
0.0
 11
42.16543652306927
 21
103.6075189787
 31
0.0
 11
41.85228832444524
 21
103.4309296923687
 31
0.0
 11
41.67849676731123
 21
103.1757573574022
 31
0.0
 11
41.67850271589241
 21
102.892535407017
 31
0.0
 11
41.85228355405366
 21
102.637359421976
 31
0.0
 11
42.1654391704368
 21
102.460776712852
 31
0.0
 11
42.5559318882747
 21
102.3977497991135
 31
0.0
  0
SPLINE
  5
503
330
1F
100
AcDbEntity
  8
0
  6
CONTINUOUS
 62
     7
100
AcDbSpline
210
0.0
220
0.0
230
1.0
 70
     8
 71
     3
 72
    11
 73
     7
 74
     5
 42
0.0000000001
 43
0.0000000001
 44
0.00000001
 40
0.0
 40
0.0
 40
0.0
 40
0.0
 40
0.4637392128077363
 40
0.8943133064939228
 40
1.273055130933892
 40
1.610375990410001
 40
1.610375990410001
 40
1.610375990410001
 40
1.610375990410001
 10
42.5559318882747
 20
104.3776487864359
 30
0.0
 10
42.40046512108505
 20
104.3656074157451
 30
0.0
 10
42.10065006388189
 20
104.3423858340031
 30
0.0
 10
41.71188302875667
 20
104.1586151332198
 30
0.0
 10
41.41853088648933
 20
103.8829107706632
 30
0.0
 10
41.3759777186966
 20
103.642413464965
 30
0.0
 10
41.35593188827465
 20
103.5291206490119
 30
0.0
 11
42.5559318882747
 21
104.3776487864359
 31
0.0
 11
42.0967131656935
 21
104.313056044379
 31
0.0
 11
41.7074037508512
 21
104.129120649012
 31
0.0
 11
41.4472798201225
 21
103.8538373217973
 31
0.0
 11
41.35593188827465
 21
103.5291206490119
 31
0.0
  0
SPLINE
  5
504
330
1F
100
AcDbEntity
  8
0
  6
CONTINUOUS
 62
     7
100
AcDbSpline
210
0.0
220
0.0
230
1.0
 70
     8
 71
     3
 72
    11
 73
     7
 74
     5
 42
0.0000000001
 43
0.0000000001
 44
0.00000001
 40
0.0
 40
0.0
 40
0.0
 40
0.0
 40
0.3373208594760935
 40
0.7160626839157893
 40
1.146636777601648
 40
1.610375990410199
 40
1.610375990410199
 40
1.610375990410199
 40
1.610375990410199
 10
43.75593188827475
 20
103.5291206490119
 30
0.0
 10
43.73588605785281
 20
103.642413464965
 30
0.0
 10
43.69333289006013
 20
103.882910770663
 30
0.0
 10
43.39998074779324
 20
104.1586151332198
 30
0.0
 10
43.011213712668
 20
104.3423858340033
 30
0.0
 10
42.71139865546463
 20
104.3656074157452
 30
0.0
 10
42.5559318882747
 20
104.3776487864359
 30
0.0
 11
43.75593188827475
 21
103.5291206490119
 31
0.0
 11
43.66458395642695
 21
103.8538373217973
 31
0.0
 11
43.40446002569865
 21
104.129120649012
 31
0.0
 11
43.01515061085672
 21
104.313056044379
 31
0.0
 11
42.5559318882747
 21
104.3776487864359
 31
0.0
  0
SPLINE
  5
505
330
1F
100
AcDbEntity
  8
0
  6
CONTINUOUS
 62
     7
100
AcDbSpline
210
0.0
220
0.0
230
1.0
 70
     8
 71
     3
 72
    15
 73
    11
 74
     9
 42
0.0000000001
 43
0.0000000001
 44
0.00000001
 40
0.0
 40
0.0
 40
0.0
 40
0.0
 40
0.3373208594759098
 40
0.7160626839155582
 40
1.146636777601411
 40
1.610375990409957
 40
2.074115203218122
 40
2.504689296904019
 40
2.883431121344009
 40
3.220751980819938
 40
3.220751980819938
 40
3.220751980819938
 40
3.220751980819938
 10
54.5559318882747
 20
107.630339979894
 30
0.0
 10
54.53588605785275
 20
107.7435555789506
 30
0.0
 10
54.49333289006002
 20
107.9838889690869
 30
0.0
 10
54.19998074779334
 20
108.2610024206088
 30
0.0
 10
53.81121371266804
 20
108.4384061569096
 30
0.0
 10
53.3559318882749
 20
108.4998493523415
 30
0.0
 10
52.90065006388171
 20
108.4384061569095
 30
0.0
 10
52.51188302875655
 20
108.2610024206086
 30
0.0
 10
52.21853088648933
 20
107.9838889690871
 30
0.0
 10
52.17597771869658
 20
107.7435555789506
 30
0.0
 10
52.15593188827461
 20
107.630339979894
 30
0.0
 11
54.5559318882747
 21
107.630339979894
 31
0.0
 11
54.46458395642692
 21
107.9550566526792
 31
0.0
 11
54.20446002569872
 21
108.2303399798939
 31
0.0
 11
53.81515061085679
 21
108.4142753752609
 31
0.0
 11
53.35593188827477
 21
108.4788681173178
 31
0.0
 11
52.89671316569313
 21
108.4142753752609
 31
0.0
 11
52.50740375085115
 21
108.2303399798939
 31
0.0
 11
52.24727982012246
 21
107.9550566526792
 31
0.0
 11
52.15593188827461
 21
107.630339979894
 31
0.0
  0
SPLINE
  5
506
330
1F
100
AcDbEntity
  8
0
  6
CONTINUOUS
 62
     7
100
AcDbSpline
210
0.0
220
0.0
230
1.0
 70
    11
 71
     3
 72
    21
 73
    17
 74
    15
 42
0.0000000001
 43
0.0000000001
 44
0.00000001
 40
0.0
 40
0.0
 40
0.0
 40
0.0
 40
0.3955463999838224
 40
0.7550570301933223
 40
1.063787597280072
 40
1.347009547727781
 40
1.655743131685171
 40
2.015250531258856
 40
2.410798238016408
 40
2.806345944774296
 40
3.165853344348434
 40
3.474586928305907
 40
3.757808878753617
 40
4.066539445840418
 40
4.426050076050277
 40
4.821596476033567
 40
4.821596476033567
 40
4.821596476033567
 40
4.821596476033567
 10
53.35593188827465
 20
106.4989691299954
 30
0.0
 10
53.48841100368804
 20
106.510655315003
 30
0.0
 10
53.74129988714336
 20
106.5329630294621
 30
0.0
 10
54.06193852743493
 20
106.7079762507048
 30
0.0
 10
54.26182680392989
 20
106.9739552427761
 30
0.0
 10
54.26184138586346
 20
107.2966044679686
 30
0.0
 10
54.06192812471146
 20
107.5637962992905
 30
0.0
 10
53.74130493328307
 20
107.7328460183778
 30
0.0
 10
53.35593188827505
 20
107.7921411737655
 30
0.0
 10
52.9705588432669
 20
107.7328460183777
 30
0.0
 10
52.64993565183812
 20
107.5637962992906
 30
0.0
 10
52.45002239068582
 20
107.2966044679687
 30
0.0
 10
52.45003697261943
 20
106.9739552427761
 30
0.0
 10
52.64992524911455
 20
106.7079762507047
 30
0.0
 10
52.97056388940625
 20
106.5329630294623
 30
0.0
 10
53.22345277286145
 20
106.5106553150031
 30
0.0
 10
53.35593188827465
 20
106.4989691299954
 30
0.0
 11
53.35593188827465
 21
106.4989691299954
 31
0.0
 11
53.74642460611298
 21
106.5619960437338
 31
0.0
 11
54.0595802224957
 21
106.7385787528579
 31
0.0
 11
54.23336106065695
 21
106.993754737899
 31
0.0
 11
54.23336700923812
 21
107.2769766882842
 31
0.0
 11
54.05957545210428
 21
107.5321490232505
 31
0.0
 11
53.74642725348076
 21
107.7087383095821
 31
0.0
 11
53.35593188827517
 21
107.771757021677
 31
0.0
 11
52.96543652306923
 21
107.7087383095821
 31
0.0
 11
52.65228832444519
 21
107.5321490232505
 31
0.0
 11
52.47849676731119
 21
107.2769766882842
 31
0.0
 11
52.47850271589238
 21
106.993754737899
 31
0.0
 11
52.65228355405372
 21
106.7385787528579
 31
0.0
 11
52.96543917043685
 21
106.5619960437338
 31
0.0
 11
53.35593188827465
 21
106.4989691299954
 31
0.0
  0
SPLINE
  5
507
330
1F
100
AcDbEntity
  8
0
  6
CONTINUOUS
 62
     7
100
AcDbSpline
210
0.0
220
0.0
230
1.0
 70
     8
 71
     3
 72
    23
 73
    19
 74
    17
 42
0.0000000001
 43
0.0000000001
 44
0.00000001
 40
0.0
 40
0.0
 40
0.0
 40
0.0
 40
0.1636466146544238
 40
0.2881042651097508
 40
0.4359136843856966
 40
0.589419922606486
 40
0.7861018240282553
 40
1.107455538958326
 40
1.392568834365752
 40
1.68383568705132
 40
1.975102539736214
 40
2.260215835143188
 40
2.472068114943427
 40
2.77817427631819
 40
2.931680514537911
 40
3.079489933814759
 40
3.203947584269888
 40
3.367594198924501
 40
3.367594198924501
 40
3.367594198924501
 40
3.367594198924501
 10
54.5559318882747
 20
107.3474972674194
 30
0.0
 10
54.55251333405378
 20
107.2928311747679
 30
0.0
 10
54.54649487743227
 20
107.196590048833
 30
0.0
 10
54.50205696196196
 20
107.0571704604281
 30
0.0
 10
54.43796940969086
 20
106.9298740685915
 30
0.0
 10
54.33766521083584
 20
106.7965194337609
 30
0.0
 10
54.17183647496309
 20
106.6441826188884
 30
0.0
 10
53.93473645782168
 20
106.5125911710921
 30
0.0
 10
53.64561869640968
 20
106.4288865495865
 30
0.0
 10
53.35591223998409
 20
106.4021248283562
 30
0.0
 10
53.06632284308957
 20
106.4288418393083
 30
0.0
 10
52.81215579023821
 20
106.50253707287
 30
0.0
 10
52.57217234511152
 20
106.6232261004593
 30
0.0
 10
52.39615522560414
 20
106.7672554336225
 30
0.0
 10
52.27390943917255
 20
106.9298672043173
 30
0.0
 10
52.20980358459036
 20
107.0571719314419
 30
0.0
 10
52.16536993057799
 20
107.1965895790825
 30
0.0
 10
52.15935081614194
 20
107.2928310046009
 30
0.0
 10
52.15593188827461
 20
107.3474972674194
 30
0.0
 11
54.5559318882747
 21
107.3474972674194
 31
0.0
 11
54.53814216858422
 21
107.1848204701766
 31
0.0
 11
54.50167378819174
 21
107.0658256636159
 31
0.0
 11
54.43513665443695
 21
106.933839170904
 31
0.0
 11
54.34329824499469
 21
106.8108356273623
 31
0.0
 11
54.19901765774367
 21
106.6771685690069
 31
0.0
 11
53.91946756969878
 21
106.5186757982776
 31
0.0
 11
53.64592975262011
 21
106.4382602907811
 31
0.0
 11
53.35593188827465
 21
106.4111011643514
 31
0.0
 11
53.06593402392986
 21
106.4382602907811
 31
0.0
 11
52.79239620685166
 21
106.5186757982776
 31
0.0
 11
52.60351786502309
 21
106.6146255791249
 31
0.0
 11
52.36856553155462
 21
106.8108356273623
 31
0.0
 11
52.27672712211324
 21
106.9338391709033
 31
0.0
 11
52.2101899883578
 21
107.0658256636159
 31
0.0
 11
52.17372160796553
 21
107.1848204701764
 31
0.0
 11
52.15593188827461
 21
107.3474972674194
 31
0.0
  0
SPLINE
  5
508
330
1F
100
AcDbEntity
  8
0
  6
CONTINUOUS
 62
     7
100
AcDbSpline
210
0.0
220
0.0
230
1.0
 70
     8
 71
     3
 72
    11
 73
     7
 74
     5
 42
0.0000000001
 43
0.0000000001
 44
0.00000001
 40
0.0
 40
0.0
 40
0.0
 40
0.0
 40
0.8115436224141322
 40
1.565048286364742
 40
2.2278464791346
 40
2.8181579832176
 40
2.8181579832176
 40
2.8181579832176
 40
2.8181579832176
 10
53.25593188827475
 20
105.509019559597
 30
0.0
 10
52.98386504569265
 20
105.5300919583058
 30
0.0
 10
52.45918869558696
 20
105.5707297263541
 30
0.0
 10
51.77884638411778
 20
105.892328452725
 30
0.0
 10
51.26548013515007
 20
106.3748110871991
 30
0.0
 10
51.19101209151296
 20
106.7956813721708
 30
0.0
 10
51.15593188827461
 20
106.9939438000887
 30
0.0
 11
53.25593188827475
 21
105.509019559597
 31
0.0
 11
52.45229912375704
 21
105.6220568581965
 31
0.0
 11
51.77100764778322
 21
105.9439438000887
 31
0.0
 11
51.31579076900813
 21
106.4256896227144
 31
0.0
 11
51.15593188827461
 21
106.9939438000887
 31
0.0
  0
SPLINE
  5
509
330
1F
100
AcDbEntity
  8
0
  6
CONTINUOUS
 62
     7
100
AcDbSpline
210
0.0
220
0.0
230
1.0
 70
     8
 71
     3
 72
    11
 73
     7
 74
     5
 42
0.0000000001
 43
0.0000000001
 44
0.00000001
 40
0.0
 40
0.0
 40
0.0
 40
0.0
 40
0.7342537536129109
 40
1.41599606861565
 40
2.015670623978822
 40
2.549761984815865
 40
2.549761984815865
 40
2.549761984815865
 40
2.549761984815865
 10
53.25593188827475
 20
106.2868370189021
 30
0.0
 10
53.00977617355755
 20
106.3059025224957
 30
0.0
 10
52.53506899965244
 20
106.3426700269204
 30
0.0
 10
51.9195211940375
 20
106.6336403031608
 30
0.0
 10
51.45504696878125
 20
107.0701722105423
 30
0.0
 10
51.38767111977607
 20
107.4509596112309
 30
0.0
 10
51.35593188827465
 20
107.6303399031566
 30
0.0
 11
53.25593188827475
 21
106.2868370189021
 31
0.0
 11
52.52883557752051
 21
106.3891088604922
 31
0.0
 11
51.91242900402062
 21
106.6803399031566
 31
0.0
 11
51.50056611370039
 21
107.1162051712465
 31
0.0
 11
51.35593188827465
 21
107.6303399031566
 31
0.0
  0
SPLINE
  5
50A
330
1F
100
AcDbEntity
  8
0
  6
CONTINUOUS
 62
     7
100
AcDbSpline
210
0.0
220
0.0
230
1.0
 70
     8
 71
     3
 72
    11
 73
     7
 74
     5
 42
0.0000000001
 43
0.0000000001
 44
0.00000001
 40
0.0
 40
0.0
 40
0.0
 40
0.0
 40
0.8115436224141263
 40
1.565048286364712
 40
2.227846479134591
 40
2.818157983217645
 40
2.818157983217645
 40
2.818157983217645
 40
2.818157983217645
 10
53.25593188827475
 20
106.0039943064276
 30
0.0
 10
52.98386504569265
 20
106.0250667051364
 30
0.0
 10
52.45918869558697
 20
106.0657044731847
 30
0.0
 10
51.77884638411771
 20
106.3873031995555
 30
0.0
 10
51.26548013515008
 20
106.8697858340297
 30
0.0
 10
51.19101209151296
 20
107.2906561190014
 30
0.0
 10
51.15593188827461
 20
107.4889185469193
 30
0.0
 11
53.25593188827475
 21
106.0039943064276
 31
0.0
 11
52.45229912375704
 21
106.1170316050271
 31
0.0
 11
51.77100764778322
 21
106.4389185469193
 31
0.0
 11
51.31579076900813
 21
106.9206643695449
 31
0.0
 11
51.15593188827461
 21
107.4889185469193
 31
0.0
  0
SPLINE
  5
50B
330
1F
100
AcDbEntity
  8
0
  6
CONTINUOUS
 62
     7
100
AcDbSpline
210
0.0
220
0.0
230
1.0
 70
     8
 71
     3
 72
     9
 73
     5
 74
     3
 42
0.0000000001
 43
0.0000000001
 44
0.00000001
 40
0.0
 40
0.0
 40
0.0
 40
0.0
 40
0.0772898688009169
 40
0.1490522177487431
 40
0.1490522177487431
 40
0.1490522177487431
 40
0.1490522177487431
 10
54.37308917580072
 20
105.509019559597
 30
0.0
 10
54.39917637043209
 20
105.5106849688933
 30
0.0
 10
54.4494850884435
 20
105.5138966828336
 30
0.0
 10
54.49337796527141
 20
105.5385644348581
 30
0.0
 10
54.51451053203778
 20
105.5504409158342
 30
0.0
 11
54.37308917580072
 21
105.509019559597
 31
0.0
 11
54.44962562956388
 21
105.5197850166064
 31
0.0
 11
54.51451053203778
 21
105.5504409158342
 31
0.0
  0
SPLINE
  5
50C
330
1F
100
AcDbEntity
  8
0
  6
CONTINUOUS
 62
     7
100
AcDbSpline
210
0.0
220
0.0
230
1.0
 70
     8
 71
     3
 72
    11
 73
     7
 74
     5
 42
0.0000000001
 43
0.0000000001
 44
0.00000001
 40
0.0
 40
0.0
 40
0.0
 40
0.0
 40
0.6324766115174829
 40
1.342617532342063
 40
2.149943958003429
 40
3.019454982018985
 40
3.019454982018985
 40
3.019454982018985
 40
3.019454982018985
 10
50.20593188827479
 20
97.22226619235106
 30
0.0
 10
50.16834595623378
 20
97.4346902222631
 30
0.0
 10
50.08855876662271
 20
97.88562267044693
 30
0.0
 10
49.53852349987193
 20
98.40256835024081
 30
0.0
 10
48.80958530901197
 20
98.74713841420959
 30
0.0
 10
48.24743207675576
 20
98.79067887997573
 30
0.0
 10
47.95593188827479
 20
98.81325645002086
 30
0.0
 11
50.20593188827479
 21
97.22226619235106
 31
0.0
 11
50.03465451606048
 21
97.83110995382357
 31
0.0
 11
49.54692214594468
 21
98.34726619235101
 31
0.0
 11
48.8169669931156
 21
98.69214505866415
 31
0.0
 11
47.95593188827479
 21
98.81325645002086
 31
0.0
  0
SPLINE
  5
50D
330
1F
100
AcDbEntity
  8
0
  6
CONTINUOUS
 62
     7
100
AcDbSpline
210
0.0
220
0.0
230
1.0
 70
     8
 71
     3
 72
    11
 73
     7
 74
     5
 42
0.0000000001
 43
0.0000000001
 44
0.00000001
 40
0.0
 40
0.0
 40
0.0
 40
0.0
 40
0.8695110240156545
 40
1.676837449677105
 40
2.386978370501669
 40
3.019454982019163
 40
3.019454982019163
 40
3.019454982019163
 40
3.019454982019163
 10
47.95593188827479
 20
105.9686389673682
 30
0.0
 10
47.6644316997938
 20
105.9460613973231
 30
0.0
 10
47.10227846753752
 20
105.902520931557
 30
0.0
 10
46.37334027667742
 20
105.5579508675884
 30
0.0
 10
45.82330500992671
 20
105.0410051877943
 30
0.0
 10
45.74351782031577
 20
104.5900727396104
 30
0.0
 10
45.70593188827479
 20
104.3776487096984
 30
0.0
 11
47.95593188827479
 21
105.9686389673682
 31
0.0
 11
47.09489678343387
 21
105.8475275760116
 31
0.0
 11
46.36494163060468
 21
105.5026487096985
 31
0.0
 11
45.87720926048898
 21
104.986492471171
 31
0.0
 11
45.70593188827479
 21
104.3776487096984
 31
0.0
  0
SPLINE
  5
50E
330
1F
100
AcDbEntity
  8
0
  6
CONTINUOUS
 62
     7
100
AcDbSpline
210
0.0
220
0.0
230
1.0
 70
     8
 71
     3
 72
    11
 73
     7
 74
     5
 42
0.0000000001
 43
0.0000000001
 44
0.00000001
 40
0.0
 40
0.0
 40
0.0
 40
0.0
 40
0.6050126017224932
 40
1.247364114346352
 40
1.619893582357084
 40
2.009689518635436
 40
2.009689518635436
 40
2.009689518635436
 40
2.009689518635436
 10
44.70593188827479
 20
104.5897807440545
 30
0.0
 10
44.72847347887712
 20
104.3871030897362
 30
0.0
 10
44.77494783514275
 20
103.9692393426725
 30
0.0
 10
45.0733149425506
 20
103.4996761357326
 30
0.0
 10
45.39539217442949
 20
103.1590765688042
 30
0.0
 10
45.60086733105523
 20
103.008475307433
 30
0.0
 10
45.70593188827479
 20
102.9314691374292
 30
0.0
 11
44.70593188827479
 21
104.5897807440545
 31
0.0
 11
44.81667378977999
 21
103.9949896214795
 31
0.0
 11
45.14134932597538
 21
103.4407322246264
 31
0.0
 11
45.39876016895823
 21
103.1714408165733
 31
0.0
 11
45.70593188827479
 21
102.9314691374292
 31
0.0
  0
SPLINE
  5
50F
330
1F
100
AcDbEntity
  8
0
  6
CONTINUOUS
 62
     7
100
AcDbSpline
210
0.0
220
0.0
230
1.0
 70
     8
 71
     3
 72
    11
 73
     7
 74
     5
 42
0.0000000001
 43
0.0000000001
 44
0.00000001
 40
0.0
 40
0.0
 40
0.0
 40
0.0
 40
0.8695110240156664
 40
1.676837449677142
 40
2.386978370501654
 40
3.019454982019092
 40
3.019454982019092
 40
3.019454982019092
 40
3.019454982019092
 10
47.95593188827479
 20
98.81325645002086
 30
0.0
 10
47.6644316997938
 20
98.79067887997573
 30
0.0
 10
47.10227846753751
 20
98.74713841420962
 30
0.0
 10
46.37334027667745
 20
98.40256835024091
 30
0.0
 10
45.82330500992673
 20
97.8856226704469
 30
0.0
 10
45.74351782031577
 20
97.43469022226307
 30
0.0
 10
45.70593188827479
 20
97.22226619235106
 30
0.0
 11
47.95593188827479
 21
98.81325645002086
 31
0.0
 11
47.09489678343387
 21
98.69214505866417
 31
0.0
 11
46.36494163060468
 21
98.34726619235101
 31
0.0
 11
45.87720926048898
 21
97.83110995382356
 31
0.0
 11
45.70593188827479
 21
97.22226619235106
 31
0.0
  0
SPLINE
  5
510
330
1F
100
AcDbEntity
  8
0
  6
CONTINUOUS
 62
     7
100
AcDbSpline
210
0.0
220
0.0
230
1.0
 70
     8
 71
     3
 72
    15
 73
    11
 74
     9
 42
0.0000000001
 43
0.0000000001
 44
0.00000001
 40
0.0
 40
0.0
 40
0.0
 40
0.0
 40
0.6324766115174522
 40
1.342617532342016
 40
2.149943958003449
 40
3.019454982019103
 40
3.888966006034647
 40
4.696292431695971
 40
5.406433352520613
 40
6.038909964038096
 40
6.038909964038096
 40
6.038909964038096
 40
6.038909964038096
 10
45.70593188827479
 20
97.22226619235106
 30
0.0
 10
45.74351782031578
 20
97.00998694411992
 30
0.0
 10
45.82330500992674
 20
96.55936183761409
 30
0.0
 10
46.3733402766774
 20
96.03977411601052
 30
0.0
 10
47.10227846753753
 20
95.70714211044701
 30
0.0
 10
47.95593188827476
 20
95.59193611901179
 30
0.0
 10
48.80958530901194
 20
95.70714211044701
 30
0.0
 10
49.53852349987199
 20
96.03977411601059
 30
0.0
 10
50.0885587666227
 20
96.55936183761406
 30
0.0
 10
50.16834595623376
 20
97.00998694411992
 30
0.0
 10
50.20593188827479
 20
97.22226619235106
 30
0.0
 11
45.70593188827479
 21
97.22226619235106
 31
0.0
 11
45.87720926048898
 21
96.61342243087854
 31
0.0
 11
46.36494163060468
 21
96.09726619235101
 31
0.0
 11
47.09489678343387
 21
95.75238732603796
 31
0.0
 11
47.95593188827479
 21
95.63127593468136
 31
0.0
 11
48.8169669931156
 21
95.75238732603798
 31
0.0
 11
49.54692214594468
 21
96.09726619235101
 31
0.0
 11
50.03465451606048
 21
96.61342243087854
 31
0.0
 11
50.20593188827479
 21
97.22226619235106
 31
0.0
  0
SPLINE
  5
511
330
1F
100
AcDbEntity
  8
0
  6
CONTINUOUS
 62
     7
100
AcDbSpline
210
0.0
220
0.0
230
1.0
 70
     8
 71
     3
 72
    11
 73
     7
 74
     5
 42
0.0000000001
 43
0.0000000001
 44
0.00000001
 40
0.0
 40
0.0
 40
0.0
 40
0.0
 40
0.3897959362783947
 40
0.7623254042892971
 40
1.404676916913185
 40
2.009689518635623
 40
2.009689518635623
 40
2.009689518635623
 40
2.009689518635623
 10
50.20593188827479
 20
102.9314691374292
 30
0.0
 10
50.31099644549437
 20
103.008475307433
 30
0.0
 10
50.51647160212014
 20
103.1590765688042
 30
0.0
 10
50.83854883399935
 20
103.4996761357324
 30
0.0
 10
51.13691594140729
 20
103.9692393426724
 30
0.0
 10
51.18339029767262
 20
104.3871030897362
 30
0.0
 10
51.20593188827479
 20
104.5897807440545
 30
0.0
 11
50.20593188827479
 21
102.9314691374292
 31
0.0
 11
50.51310360759139
 21
103.1714408165733
 31
0.0
 11
50.77051445057452
 21
103.4407322246264
 31
0.0
 11
51.09518998676997
 21
103.9949896214795
 31
0.0
 11
51.20593188827479
 21
104.5897807440545
 31
0.0
  0
SPLINE
  5
512
330
1F
100
AcDbEntity
  8
0
  6
CONTINUOUS
 62
     7
100
AcDbSpline
210
0.0
220
0.0
230
1.0
 70
     8
 71
     3
 72
     9
 73
     5
 74
     3
 42
0.0000000001
 43
0.0000000001
 44
0.00000001
 40
0.0
 40
0.0
 40
0.0
 40
0.0
 40
0.0772898688018094
 40
0.1490522177496666
 40
0.1490522177496666
 40
0.1490522177496666
 40
0.1490522177496666
 10
41.53877460074978
 20
104.3776487096985
 30
0.0
 10
41.51268740611813
 20
104.3793141189948
 30
0.0
 10
41.46237868810637
 20
104.3825258329351
 30
0.0
 10
41.41848581127817
 20
104.4071935849597
 30
0.0
 10
41.39735324451181
 20
104.4190700659358
 30
0.0
 11
41.53877460074978
 21
104.3776487096985
 31
0.0
 11
41.46223814698573
 21
104.388414166708
 31
0.0
 11
41.39735324451181
 21
104.4190700659358
 31
0.0
  0
SPLINE
  5
513
330
1F
100
AcDbEntity
  8
0
  6
CONTINUOUS
 62
     7
100
AcDbSpline
210
0.0
220
0.0
230
1.0
 70
     8
 71
     3
 72
    11
 73
     7
 74
     5
 42
0.0000000001
 43
0.0000000001
 44
0.00000001
 40
0.0
 40
0.0
 40
0.0
 40
0.0
 40
0.8115436224146177
 40
1.565048286365267
 40
2.227846479134874
 40
2.818157983217846
 40
2.818157983217846
 40
2.818157983217846
 40
2.818157983217846
 10
42.65593188827461
 20
104.3776487096985
 30
0.0
 10
42.92799873085686
 20
104.3565763109897
 30
0.0
 10
43.45267508096269
 20
104.3159385429414
 30
0.0
 10
44.13301739243219
 20
103.9943398165707
 30
0.0
 10
44.64638364139943
 20
103.5118571820963
 30
0.0
 10
44.72085168503644
 20
103.0909868971247
 30
0.0
 10
44.75593188827475
 20
102.8927244692068
 30
0.0
 11
42.65593188827461
 21
104.3776487096985
 31
0.0
 11
43.45956465279281
 21
104.264611411099
 31
0.0
 11
44.1408561287667
 21
103.9427244692068
 31
0.0
 11
44.59607300754138
 21
103.4609786465811
 31
0.0
 11
44.75593188827475
 21
102.8927244692068
 31
0.0
  0
SPLINE
  5
514
330
1F
100
AcDbEntity
  8
0
  6
CONTINUOUS
 62
     7
100
AcDbSpline
210
0.0
220
0.0
230
1.0
 70
     8
 71
     3
 72
    21
 73
    17
 74
    15
 42
0.0000000001
 43
0.0000000001
 44
0.00000001
 40
0.0
 40
0.0
 40
0.0
 40
0.0
 40
0.623470601710302
 40
1.199498680940985
 40
1.923946181365874
 40
2.689593302162367
 40
3.55079658075724
 40
4.509149534754124
 40
5.525920767284338
 40
6.542691999814651
 40
7.501044953811628
 40
8.362248232406513
 40
9.127895353202954
 40
9.85234285362787
 40
10.4283709328585
 40
11.05184153456886
 40
11.05184153456886
 40
11.05184153456886
 40
11.05184153456886
 10
50.20593188827479
 20
103.0285710012327
 30
0.0
 10
50.35664360778568
 20
103.1738563386652
 30
0.0
 10
50.64659875283947
 20
103.4533716359902
 30
0.0
 10
50.91772925763755
 20
104.0525360081553
 30
0.0
 10
50.91981298902791
 20
104.7697505404362
 30
0.0
 10
50.53057107525607
 20
105.4819701473147
 30
0.0
 10
49.84660430140031
 20
106.032629995121
 30
0.0
 10
48.95595299108102
 20
106.3838525826589
 30
0.0
 10
47.95593188827476
 20
106.5046690912696
 30
0.0
 10
46.95591078546843
 20
106.3838525826589
 30
0.0
 10
46.06525947514911
 20
106.032629995121
 30
0.0
 10
45.38129270129328
 20
105.4819701473148
 30
0.0
 10
44.99205078752151
 20
104.7697505404361
 30
0.0
 10
44.99413451891208
 20
104.0525360081554
 30
0.0
 10
45.26526502370999
 20
103.4533716359901
 30
0.0
 10
45.55522016876384
 20
103.1738563386652
 30
0.0
 10
45.70593188827479
 20
103.0285710012327
 30
0.0
 11
50.20593188827479
 21
103.0285710012327
 31
0.0
 11
50.62539931000133
 21
103.4898330453108
 31
0.0
 11
50.86111475966051
 21
104.0154246879899
 31
0.0
 11
50.8611104045396
 21
104.7398721884017
 31
0.0
 11
50.51070682943873
 21
105.4206312119486
 31
0.0
 11
49.85215249424641
 21
105.975588214483
 31
0.0
 11
48.96489131108524
 21
106.337814631645
 31
0.0
 11
47.95593188827478
 21
106.4636105871563
 31
0.0
 11
46.94697246546423
 21
106.337814631645
 31
0.0
 11
46.05971128230296
 21
105.975588214483
 31
0.0
 11
45.40115694711062
 21
105.4206312119486
 31
0.0
 11
45.05075337200986
 21
104.7398721884017
 31
0.0
 11
45.05074901688906
 21
104.0154246879899
 31
0.0
 11
45.28646446654814
 21
103.4898330453108
 31
0.0
 11
45.70593188827479
 21
103.0285710012327
 31
0.0
  0
SPLINE
  5
515
330
1F
100
AcDbEntity
  8
0
  6
CONTINUOUS
 62
     7
100
AcDbSpline
210
0.0
220
0.0
230
1.0
 70
     8
 71
     3
 72
    15
 73
    11
 74
     9
 42
0.0000000001
 43
0.0000000001
 44
0.00000001
 40
0.0
 40
0.0
 40
0.0
 40
0.0
 40
0.0202203883250451
 40
0.0414092405360229
 40
0.0606363358477007
 40
0.0852837620857509
 40
0.1106414636521046
 40
0.132138793024546
 40
0.1584074166525003
 40
0.1819270100559654
 40
0.1819270100559654
 40
0.1819270100559654
 40
0.1819270100559654
 10
55.85908248890883
 20
102.0441963317828
 30
0.0
 10
55.86582911216246
 20
102.0445297977639
 30
0.0
 10
55.87964549098883
 20
102.0452127012175
 30
0.0
 10
55.89932890542391
 20
102.050376543526
 30
0.0
 10
55.91942168321773
 20
102.0586491046131
 30
0.0
 10
55.93929693625604
 20
102.0705880816055
 30
0.0
 10
55.95771725427105
 20
102.0858479964801
 30
0.0
 10
55.97435814830929
 20
102.1037116667409
 30
0.0
 10
55.98858958687992
 20
102.1228419306804
 30
0.0
 10
55.99668135326584
 20
102.1373451268658
 30
0.0
 10
56.00050384514566
 20
102.1441963317827
 30
0.0
 11
55.85908248890883
 21
102.0441963317828
 31
0.0
 11
55.87923309704124
 21
102.0458747524422
 31
0.0
 11
55.89979025125672
 21
102.0510100098437
 31
0.0
 11
55.91756462605615
 21
102.0583416395816
 31
0.0
 11
55.93873509372565
 21
102.0709633240498
 31
0.0
 11
55.95829942047687
 21
102.0870955944263
 31
0.0
 11
55.97300209285777
 21
102.1027789166192
 31
0.0
 11
55.98862399087269
 21
102.123897555063
 31
0.0
 11
56.00050384514566
 21
102.1441963317827
 31
0.0
  0
SPLINE
  5
516
330
1F
100
AcDbEntity
  8
0
  6
CONTINUOUS
 62
     7
100
AcDbSpline
210
0.0
220
0.0
230
1.0
 70
     8
 71
     3
 72
    15
 73
    11
 74
     9
 42
0.0000000001
 43
0.0000000001
 44
0.00000001
 40
0.0
 40
0.0
 40
0.0
 40
0.0
 40
0.013834764280877
 40
0.0319681278660037
 40
0.0460296168783638
 40
0.073410323712363
 40
0.096391788207412
 40
0.1216953366945538
 40
0.150664172086921
 40
0.1734195775667726
 40
0.1734195775667726
 40
0.1734195775667726
 40
0.1734195775667726
 10
56.00050384514566
 20
109.9268265469809
 30
0.0
 10
55.99642744548935
 20
109.9289860601513
 30
0.0
 10
55.98700806812953
 20
109.9339760687815
 30
0.0
 10
55.97406047305807
 20
109.9422329052867
 30
0.0
 10
55.95750676129465
 20
109.9531982518575
 30
0.0
 10
55.9398793196433
 20
109.9654694709677
 30
0.0
 10
55.91938441678374
 20
109.9801702022608
 30
0.0
 10
55.89868306673846
 20
109.995487071936
 30
0.0
 10
55.87828907682108
 20
110.0110935296115
 30
0.0
 10
55.86495058465356
 20
110.0220197144138
 30
0.0
 10
55.85908248890883
 20
110.0268265469808
 30
0.0
 11
56.00050384514566
 21
109.9268265469809
 31
0.0
 11
55.98835463960484
 21
109.9334445155087
 31
0.0
 11
55.97295010926973
 21
109.9430110885662
 31
0.0
 11
55.96122789477317
 21
109.9507773721395
 31
0.0
 11
55.93871664195262
 21
109.9663641166097
 31
0.0
 11
55.92004505421241
 21
109.9797626061364
 31
0.0
 11
55.8997030331077
 21
109.9948115842883
 31
0.0
 11
55.87675569605935
 21
110.0124924537912
 31
0.0
 11
55.85908248890883
 21
110.0268265469808
 31
0.0
  0
SPLINE
  5
517
330
1F
100
AcDbEntity
  8
0
  6
CONTINUOUS
 62
     7
100
AcDbSpline
210
0.0
220
0.0
230
1.0
 70
     8
 71
     3
 72
     9
 73
     5
 74
     3
 42
0.0000000001
 43
0.0000000001
 44
0.00000001
 40
0.0
 40
0.0
 40
0.0
 40
0.0
 40
0.1067412927430057
 40
0.1923359263941729
 40
0.1923359263941729
 40
0.1923359263941729
 40
0.1923359263941729
 10
56.00050384514566
 20
102.1441963317827
 30
0.0
 10
56.01647296490431
 20
102.1763676211771
 30
0.0
 10
56.04524754092406
 20
102.2343367031505
 30
0.0
 10
56.05264141601742
 20
102.2984893844994
 30
0.0
 10
56.0559318882747
 20
102.3270390442575
 30
0.0
 11
56.00050384514566
 21
102.1441963317827
 31
0.0
 11
56.0418260490251
 21
102.2426147195108
 31
0.0
 11
56.0559318882747
 21
102.3270390442575
 31
0.0
  0
SPLINE
  5
518
330
1F
100
AcDbEntity
  8
0
  6
CONTINUOUS
 62
     7
100
AcDbSpline
210
0.0
220
0.0
230
1.0
 70
     8
 71
     3
 72
     9
 73
     5
 74
     3
 42
0.0000000001
 43
0.0000000001
 44
0.00000001
 40
0.0
 40
0.0
 40
0.0
 40
0.0
 40
0.0660006428929624
 40
0.123497792915977
 40
0.123497792915977
 40
0.123497792915977
 40
0.123497792915977
 10
56.0559318882747
 20
109.8223709248349
 30
0.0
 10
56.05419848091908
 20
109.8455180115047
 30
0.0
 10
56.05095499762465
 20
109.8888299247051
 30
0.0
 10
56.01653079836224
 20
109.9147560578507
 30
0.0
 10
56.00050384514566
 20
109.9268265469809
 30
0.0
 11
56.0559318882747
 21
109.8223709248349
 31
0.0
 11
56.0418260490251
 21
109.8868465804062
 31
0.0
 11
56.00050384514566
 21
109.9268265469809
 31
0.0
  0
SPLINE
  5
519
330
1F
100
AcDbEntity
  8
0
  6
CONTINUOUS
 62
     7
100
AcDbSpline
210
0.0
220
0.0
230
1.0
 70
     8
 71
     3
 72
    11
 73
     7
 74
     5
 42
0.0000000001
 43
0.0000000001
 44
0.00000001
 40
0.0
 40
0.0
 40
0.0
 40
0.0
 40
0.1003388226148428
 40
0.2006776452298336
 40
0.288640120579549
 40
0.3552872562887974
 40
0.3552872562887974
 40
0.3552872562887974
 40
0.3552872562887974
 10
55.15593188827461
 20
106.0039943064276
 30
0.0
 10
55.18228770972246
 20
106.0247772078737
 30
0.0
 10
55.23499935261821
 20
106.066343010766
 30
0.0
 10
55.29625425797353
 20
106.1407197679977
 30
0.0
 10
55.34307545907256
 20
106.2135996001256
 30
0.0
 10
55.35205926430145
 20
106.2647763845509
 30
0.0
 10
55.35593188827465
 20
106.2868370189021
 30
0.0
 11
55.15593188827461
 21
106.0039943064276
 31
0.0
 11
55.23246834203827
 21
106.0688792089013
 31
0.0
 11
55.29735324451224
 21
106.1454156626648
 31
0.0
 11
55.34070723296698
 21
106.2219521164285
 31
0.0
 11
55.35593188827465
 21
106.2868370189021
 31
0.0
  0
SPLINE
  5
51A
330
1F
100
AcDbEntity
  8
0
  6
CONTINUOUS
 62
     7
100
AcDbSpline
210
0.0
220
0.0
230
1.0
 70
     8
 71
     3
 72
     9
 73
     5
 74
     3
 42
0.0000000001
 43
0.0000000001
 44
0.00000001
 40
0.0
 40
0.0
 40
0.0
 40
0.0
 40
0.0824305949169133
 40
0.1893662123170561
 40
0.1893662123170561
 40
0.1893662123170561
 40
0.1893662123170561
 10
55.35593188827465
 20
109.0152641436483
 30
0.0
 10
55.34633924485645
 20
109.0434769758263
 30
0.0
 10
55.32430225055791
 20
109.1082897698341
 30
0.0
 10
55.25413446961718
 20
109.1127470853821
 30
0.0
 10
55.21451053203782
 20
109.1152641436484
 30
0.0
 11
55.35593188827465
 21
109.0152641436483
 31
0.0
 11
55.31803395791866
 21
109.0884662601005
 31
0.0
 11
55.21451053203782
 21
109.1152641436484
 31
0.0
  0
SPLINE
  5
51B
330
1F
100
AcDbEntity
  8
0
  6
CONTINUOUS
 62
     7
100
AcDbSpline
210
0.0
220
0.0
230
1.0
 70
     8
 71
     3
 72
     9
 73
     5
 74
     3
 42
0.0000000001
 43
0.0000000001
 44
0.00000001
 40
0.0
 40
0.0
 40
0.0
 40
0.0
 40
0.1139828991723045
 40
0.221144233016661
 40
0.221144233016661
 40
0.221144233016661
 40
0.221144233016661
 10
55.85908248890883
 20
110.0268265469808
 30
0.0
 10
55.82767534248733
 20
110.049503353195
 30
0.0
 10
55.76674068161226
 20
110.0934998206821
 30
0.0
 10
55.69210068738843
 20
110.1013901620447
 30
0.0
 10
55.65593188827461
 20
110.1052136373095
 30
0.0
 11
55.85908248890883
 21
110.0268265469808
 31
0.0
 11
55.76122007407639
 21
110.0852649681341
 31
0.0
 11
55.65593188827461
 21
110.1052136373095
 31
0.0
  0
SPLINE
  5
51C
330
1F
100
AcDbEntity
  8
0
  6
CONTINUOUS
 62
     7
100
AcDbSpline
210
0.0
220
0.0
230
1.0
 70
     8
 71
     3
 72
    11
 73
     7
 74
     5
 42
0.0000000001
 43
0.0000000001
 44
0.00000001
 40
0.0
 40
0.0
 40
0.0
 40
0.0
 40
0.1545797376030939
 40
0.298104435498644
 40
0.4243517103117357
 40
0.5367919968036876
 40
0.5367919968036876
 40
0.5367919968036876
 40
0.5367919968036876
 10
55.65593188827461
 20
110.3880562193531
 30
0.0
 10
55.70775414400467
 20
110.3840424291228
 30
0.0
 10
55.80769249640593
 20
110.3763019018754
 30
0.0
 10
55.93728150811454
 20
110.3150450016144
 30
0.0
 10
56.03506555553673
 20
110.2231435474286
 30
0.0
 10
56.04924994480081
 20
110.1429777788627
 30
0.0
 10
56.0559318882747
 20
110.1052135068783
 30
0.0
 11
55.65593188827461
 21
110.3880562193531
 31
0.0
 11
55.80900479580218
 21
110.366525305334
 31
0.0
 11
55.93877460074975
 21
110.3052135068783
 31
0.0
 11
56.02548257765899
 21
110.2134523978067
 31
0.0
 11
56.0559318882747
 21
110.1052135068783
 31
0.0
  0
SPLINE
  5
51D
330
1F
100
AcDbEntity
  8
0
  6
CONTINUOUS
 62
     7
100
AcDbSpline
210
0.0
220
0.0
230
1.0
 70
     8
 71
     3
 72
    15
 73
    11
 74
     9
 42
0.0000000001
 43
0.0000000001
 44
0.00000001
 40
0.0
 40
0.0
 40
0.0
 40
0.0
 40
0.023555865280324
 40
0.0498688959544085
 40
0.0756060922567942
 40
0.0966667605071556
 40
0.1213573411950373
 40
0.1406104541247522
 40
0.1643340460773152
 40
0.1819259512277275
 40
0.1819259512277275
 40
0.1819259512277275
 40
0.1819259512277275
 10
39.9113599314037
 20
102.1441963317827
 30
0.0
 10
39.91518894391091
 20
102.1373346048676
 30
0.0
 10
39.92329514693327
 20
102.1228080000698
 30
0.0
 10
39.93838893513662
 20
102.1025236924045
 30
0.0
 10
39.95523679244734
 20
102.0848206254241
 30
0.0
 10
39.97382818479868
 20
102.069826955624
 30
0.0
 10
39.99249640793386
 20
102.0586205145965
 30
0.0
 10
40.01339420371366
 20
102.0500251593233
 30
0.0
 10
40.03313313889858
 20
102.045054701433
 30
0.0
 10
40.04691363169546
 20
102.0444526723596
 30
0.0
 10
40.05278128764076
 20
102.0441963317828
 30
0.0
 11
39.9113599314037
 21
102.1441963317827
 31
0.0
 11
39.92325962579289
 21
102.1238671394094
 31
0.0
 11
39.93891366727962
 21
102.1027170432303
 31
0.0
 11
39.95673370726458
 21
102.0841469207632
 31
0.0
 11
39.97314713459673
 21
102.0709502867089
 31
0.0
 11
39.99435827441175
 21
102.0583125526378
 31
0.0
 11
40.01216074344166
 21
102.0509808097397
 31
0.0
 11
40.03523561593698
 21
102.0454709028025
 31
0.0
 11
40.05278128764076
 21
102.0441963317828
 31
0.0
  0
SPLINE
  5
51E
330
1F
100
AcDbEntity
  8
0
  6
CONTINUOUS
 62
     7
100
AcDbSpline
210
0.0
220
0.0
230
1.0
 70
     8
 71
     3
 72
     9
 73
     5
 74
     3
 42
0.0000000001
 43
0.0000000001
 44
0.00000001
 40
0.0
 40
0.0
 40
0.0
 40
0.0
 40
0.082430594916935
 40
0.1893662123169296
 40
0.1893662123169296
 40
0.1893662123169296
 40
0.1893662123169296
 10
40.5559318882747
 20
102.1441963317827
 30
0.0
 10
40.56552453169304
 20
102.1159834996048
 30
0.0
 10
40.58756152599192
 20
102.0511707055972
 30
0.0
 10
40.6577293069325
 20
102.0467133900492
 30
0.0
 10
40.69735324451176
 20
102.0441963317828
 30
0.0
 11
40.5559318882747
 21
102.1441963317827
 31
0.0
 11
40.59382981863106
 21
102.0709942153306
 31
0.0
 11
40.69735324451176
 21
102.0441963317828
 31
0.0
  0
SPLINE
  5
51F
330
1F
100
AcDbEntity
  8
0
  6
CONTINUOUS
 62
     7
100
AcDbSpline
210
0.0
220
0.0
230
1.0
 70
     8
 71
     3
 72
     9
 73
     5
 74
     3
 42
0.0000000001
 43
0.0000000001
 44
0.00000001
 40
0.0
 40
0.0
 40
0.0
 40
0.0
 40
0.0855946336511684
 40
0.192335926394157
 40
0.192335926394157
 40
0.192335926394157
 40
0.192335926394157
 10
39.85593188827465
 20
102.3270390442575
 30
0.0
 10
39.85922236053197
 20
102.2984893844995
 30
0.0
 10
39.86661623562541
 20
102.2343367031505
 30
0.0
 10
39.89539081164509
 20
102.1763676211771
 30
0.0
 10
39.9113599314037
 20
102.1441963317827
 30
0.0
 11
39.85593188827465
 21
102.3270390442575
 31
0.0
 11
39.87003772752433
 21
102.2426147195108
 31
0.0
 11
39.9113599314037
 21
102.1441963317827
 31
0.0
  0
SPLINE
  5
520
330
1F
100
AcDbEntity
  8
0
  6
CONTINUOUS
 62
     7
100
AcDbSpline
210
0.0
220
0.0
230
1.0
 70
     8
 71
     3
 72
     9
 73
     5
 74
     3
 42
0.0000000001
 43
0.0000000001
 44
0.00000001
 40
0.0
 40
0.0
 40
0.0
 40
0.0
 40
0.0574971500229683
 40
0.1234977929159366
 40
0.1234977929159366
 40
0.1234977929159366
 40
0.1234977929159366
 10
39.9113599314037
 20
109.9268265469809
 30
0.0
 10
39.89533297818717
 20
109.9147560578507
 30
0.0
 10
39.86090877892482
 20
109.888829924705
 30
0.0
 10
39.85766529563031
 20
109.8455180115046
 30
0.0
 10
39.85593188827465
 20
109.8223709248349
 30
0.0
 11
39.9113599314037
 21
109.9268265469809
 31
0.0
 11
39.87003772752433
 21
109.8868465804062
 31
0.0
 11
39.85593188827465
 21
109.8223709248349
 31
0.0
  0
SPLINE
  5
521
330
1F
100
AcDbEntity
  8
0
  6
CONTINUOUS
 62
     7
100
AcDbSpline
210
0.0
220
0.0
230
1.0
 70
     8
 71
     3
 72
    15
 73
    11
 74
     9
 42
0.0000000001
 43
0.0000000001
 44
0.00000001
 40
0.0
 40
0.0
 40
0.0
 40
0.0
 40
0.0227918525807253
 40
0.0518333913173648
 40
0.0770842456754103
 40
0.1000318490878351
 40
0.1274428427024757
 40
0.1415133894771563
 40
0.1596081133365051
 40
0.1734195859930806
 40
0.1734195859930806
 40
0.1734195859930806
 40
0.1734195859930806
 10
40.05278128764076
 20
110.0268265469808
 30
0.0
 10
40.04690372382677
 20
110.022012098379
 30
0.0
 10
40.03353692689422
 20
110.0110630455335
 30
0.0
 10
40.01312690729476
 20
109.9954465346218
 30
0.0
 10
39.99242852588117
 20
109.9801334292388
 30
0.0
 10
39.97194852709359
 20
109.9654441028828
 30
0.0
 10
39.95431929752479
 20
109.9531722383449
 30
0.0
 10
39.93776461897406
 20
109.9422079125922
 30
0.0
 10
39.92483091794674
 20
109.9339621445962
 30
0.0
 10
39.91542956499754
 20
109.9289822367424
 30
0.0
 10
39.9113599314037
 20
109.9268265469809
 30
0.0
 11
40.05278128764076
 21
110.0268265469808
 31
0.0
 11
40.03507949065121
 21
110.0124698437589
 31
0.0
 11
40.01207352529264
 21
109.9947459466109
 31
0.0
 11
39.99177307233553
 21
109.9797293805738
 31
0.0
 11
39.97312868282461
 21
109.9663510681937
 31
0.0
 11
39.9505920453783
 21
109.9507477818874
 31
0.0
 11
39.93886168369272
 21
109.9429773957153
 31
0.0
 11
39.9234890384947
 21
109.9334327212231
 31
0.0
 11
39.9113599314037
 21
109.9268265469809
 31
0.0
  0
SPLINE
  5
522
330
1F
100
AcDbEntity
  8
0
  6
CONTINUOUS
 62
     7
100
AcDbSpline
210
0.0
220
0.0
230
1.0
 70
     8
 71
     3
 72
     9
 73
     5
 74
     3
 42
0.0000000001
 43
0.0000000001
 44
0.00000001
 40
0.0
 40
0.0
 40
0.0
 40
0.0
 40
0.0459495206089656
 40
0.0918990412178903
 40
0.0918990412178903
 40
0.0918990412178903
 40
0.0918990412178903
 10
40.61451053203768
 20
104.9312021002918
 30
0.0
 10
40.59771509145715
 20
104.9284713262847
 30
0.0
 10
40.5641242102961
 20
104.9230097782705
 30
0.0
 10
40.55866266228183
 20
104.8894188971095
 30
0.0
 10
40.5559318882747
 20
104.872623456529
 30
0.0
 11
40.61451053203768
 21
104.9312021002918
 31
0.0
 11
40.57115654358279
 21
104.9159774449838
 31
0.0
 11
40.5559318882747
 21
104.872623456529
 31
0.0
  0
SPLINE
  5
523
330
1F
100
AcDbEntity
  8
0
  6
CONTINUOUS
 62
     7
100
AcDbSpline
210
0.0
220
0.0
230
1.0
 70
     8
 71
     3
 72
     9
 73
     5
 74
     3
 42
0.0000000001
 43
0.0000000001
 44
0.00000001
 40
0.0
 40
0.0
 40
0.0
 40
0.0
 40
0.1071613338438303
 40
0.2211442330163983
 40
0.2211442330163983
 40
0.2211442330163983
 40
0.2211442330163983
 10
40.25593188827475
 20
110.1052136373095
 30
0.0
 10
40.21976308916112
 20
110.1013901620446
 30
0.0
 10
40.1451230949374
 20
110.093499820682
 30
0.0
 10
40.08418843406236
 20
110.0495033531951
 30
0.0
 10
40.05278128764076
 20
110.0268265469808
 30
0.0
 11
40.25593188827475
 21
110.1052136373095
 31
0.0
 11
40.1506437024735
 21
110.0852649681341
 31
0.0
 11
40.05278128764076
 21
110.0268265469808
 31
0.0
  0
SPLINE
  5
524
330
1F
100
AcDbEntity
  8
0
  6
CONTINUOUS
 62
     7
100
AcDbSpline
210
0.0
220
0.0
230
1.0
 70
     8
 71
     3
 72
    11
 73
     7
 74
     5
 42
0.0000000001
 43
0.0000000001
 44
0.00000001
 40
0.0
 40
0.0
 40
0.0
 40
0.0
 40
0.1124402864919043
 40
0.2386875613053474
 40
0.3822122592007433
 40
0.5367919968033377
 40
0.5367919968033377
 40
0.5367919968033377
 40
0.5367919968033377
 10
39.85593188827465
 20
110.1052135068784
 30
0.0
 10
39.8626138317486
 20
110.1429777788627
 30
0.0
 10
39.8767982210128
 20
110.2231435474288
 30
0.0
 10
39.97458226843547
 20
110.3150450016142
 30
0.0
 10
40.1041712801438
 20
110.3763019018755
 30
0.0
 10
40.20410963254486
 20
110.3840424291228
 30
0.0
 10
40.25593188827475
 20
110.3880562193531
 30
0.0
 11
39.85593188827465
 21
110.1052135068784
 31
0.0
 11
39.88638119889053
 21
110.2134523978067
 31
0.0
 11
39.97308917580028
 21
110.3052135068783
 31
0.0
 11
40.10285898074768
 21
110.366525305334
 31
0.0
 11
40.25593188827475
 21
110.3880562193531
 31
0.0
  0
SPLINE
  5
525
330
1F
100
AcDbEntity
  8
0
  6
CONTINUOUS
 62
     7
100
AcDbSpline
210
0.0
220
0.0
230
1.0
 70
     8
 71
     3
 72
    17
 73
    13
 74
    11
 42
0.0000000001
 43
0.0000000001
 44
0.00000001
 40
0.0
 40
0.0
 40
0.0
 40
0.0
 40
0.7277476031506164
 40
1.517376889419582
 40
2.397972711644909
 40
3.360977847655922
 40
4.371561656226943
 40
5.382145464797626
 40
6.345150600808165
 40
7.225746423033442
 40
8.015375709302665
 40
8.74312331245336
 40
8.74312331245336
 40
8.74312331245336
 40
8.74312331245336
 10
51.20593188827479
 20
104.5897807440545
 30
0.0
 10
51.1724937238353
 20
104.8338221015424
 30
0.0
 10
51.10277408789911
 20
105.3426560905677
 30
0.0
 10
50.58893329430597
 20
105.9958218759055
 30
0.0
 10
49.86111560217937
 20
106.4980997136936
 30
0.0
 10
48.95238496666952
 20
106.815869536743
 30
0.0
 10
47.95593188827484
 20
106.9247471148507
 30
0.0
 10
46.95947880988033
 20
106.815869536743
 30
0.0
 10
46.05074817437078
 20
106.4980997136936
 30
0.0
 10
45.32293048224442
 20
105.9958218759054
 30
0.0
 10
44.80908968865084
 20
105.3426560905678
 30
0.0
 10
44.73937005271441
 20
104.8338221015424
 30
0.0
 10
44.70593188827479
 20
104.5897807440545
 30
0.0
 11
51.20593188827479
 21
104.5897807440545
 31
0.0
 11
51.0468631045681
 21
105.2999312182088
 31
0.0
 11
50.58523711999374
 21
105.9405682918311
 31
0.0
 11
49.86623243683233
 21
106.4489788225173
 31
0.0
 11
48.96023711999362
 21
106.7754009079373
 31
0.0
 11
47.95593188827473
 21
106.8878759526716
 31
0.0
 11
46.95162665655619
 21
106.7754009079373
 31
0.0
 11
46.04563133971797
 21
106.4489788225174
 31
0.0
 11
45.32662665655664
 21
105.9405682918311
 31
0.0
 11
44.86500067198183
 21
105.2999312182088
 31
0.0
 11
44.70593188827479
 21
104.5897807440545
 31
0.0
  0
SPLINE
  5
526
330
1F
100
AcDbEntity
  8
0
  6
CONTINUOUS
 62
     7
100
AcDbSpline
210
0.0
220
0.0
230
1.0
 70
     8
 71
     3
 72
     9
 73
     5
 74
     3
 42
0.0000000001
 43
0.0000000001
 44
0.00000001
 40
0.0
 40
0.0
 40
0.0
 40
0.0
 40
0.087962475349633
 40
0.1546096110589059
 40
0.1546096110589059
 40
0.1546096110589059
 40
0.1546096110589059
 10
40.75593188827475
 20
104.872623456529
 30
0.0
 10
40.73128263586808
 20
104.8892803607084
 30
0.0
 10
40.68795721429098
 20
104.9185578164233
 30
0.0
 10
40.63663420090215
 20
104.9273933789071
 30
0.0
 10
40.61451053203768
 20
104.9312021002918
 30
0.0
 11
40.75593188827475
 21
104.872623456529
 31
0.0
 11
40.67939543451124
 21
104.9159774449838
 31
0.0
 11
40.61451053203768
 21
104.9312021002918
 31
0.0
  0
SPLINE
  5
527
330
1F
100
AcDbEntity
  8
0
  6
CONTINUOUS
 62
     7
100
AcDbSpline
210
0.0
220
0.0
230
1.0
 70
     8
 71
     3
 72
    11
 73
     7
 74
     5
 42
0.0000000001
 43
0.0000000001
 44
0.00000001
 40
0.0
 40
0.0
 40
0.0
 40
0.0
 40
0.6324766115175376
 40
1.342617532342169
 40
2.149943958003511
 40
3.019454982019055
 40
3.019454982019055
 40
3.019454982019055
 40
3.019454982019055
 10
50.20593188827479
 20
104.3776487096984
 30
0.0
 10
50.16834595623376
 20
104.5900727396104
 30
0.0
 10
50.08855876662273
 20
105.0410051877944
 30
0.0
 10
49.53852349987199
 20
105.5579508675883
 30
0.0
 10
48.80958530901196
 20
105.902520931557
 30
0.0
 10
48.24743207675575
 20
105.9460613973231
 30
0.0
 10
47.95593188827479
 20
105.9686389673682
 30
0.0
 11
50.20593188827479
 21
104.3776487096984
 31
0.0
 11
50.03465451606048
 21
104.986492471171
 31
0.0
 11
49.54692214594468
 21
105.5026487096985
 31
0.0
 11
48.8169669931156
 21
105.8475275760116
 31
0.0
 11
47.95593188827479
 21
105.9686389673682
 31
0.0
  0
SPLINE
  5
528
330
1F
100
AcDbEntity
  8
0
  6
CONTINUOUS
 62
     7
100
AcDbSpline
210
0.0
220
0.0
230
1.0
 70
     8
 71
     3
 72
    17
 73
    13
 74
    11
 42
0.0000000001
 43
0.0000000001
 44
0.00000001
 40
0.0
 40
0.0
 40
0.0
 40
0.0
 40
0.7277476031506995
 40
1.517376889419643
 40
2.397972711644945
 40
3.360977847655952
 40
4.371561656226974
 40
5.382145464797657
 40
6.345150600808191
 40
7.225746423033444
 40
8.015375709302644
 40
8.74312331245342
 40
8.74312331245342
 40
8.74312331245342
 40
8.74312331245342
 10
51.20593188827479
 20
104.9433341346477
 30
0.0
 10
51.1724937238353
 20
105.1873754921356
 30
0.0
 10
51.10277408789912
 20
105.6962094811609
 30
0.0
 10
50.588933294306
 20
106.3493752664988
 30
0.0
 10
49.86111560217936
 20
106.8516531042869
 30
0.0
 10
48.95238496666951
 20
107.1694229273362
 30
0.0
 10
47.95593188827485
 20
107.278300505444
 30
0.0
 10
46.95947880988034
 20
107.1694229273362
 30
0.0
 10
46.0507481743708
 20
106.8516531042868
 30
0.0
 10
45.32293048224442
 20
106.3493752664986
 30
0.0
 10
44.80908968865081
 20
105.696209481161
 30
0.0
 10
44.7393700527144
 20
105.1873754921356
 30
0.0
 10
44.70593188827479
 20
104.9433341346477
 30
0.0
 11
51.20593188827479
 21
104.9433341346477
 31
0.0
 11
51.0468631045681
 21
105.6534846088021
 31
0.0
 11
50.58523711999374
 21
106.2941216824244
 31
0.0
 11
49.86623243683233
 21
106.8025322131106
 31
0.0
 11
48.96023711999362
 21
107.1289542985305
 31
0.0
 11
47.95593188827473
 21
107.2414293432648
 31
0.0
 11
46.95162665655619
 21
107.1289542985305
 31
0.0
 11
46.04563133971797
 21
106.8025322131106
 31
0.0
 11
45.32662665655664
 21
106.2941216824244
 31
0.0
 11
44.86500067198183
 21
105.6534846088021
 31
0.0
 11
44.70593188827479
 21
104.9433341346477
 31
0.0
  0
SPLINE
  5
529
330
1F
100
AcDbEntity
  8
0
  6
CONTINUOUS
 62
     7
100
AcDbSpline
210
0.0
220
0.0
230
1.0
 70
     8
 71
     3
 72
    11
 73
     7
 74
     5
 42
0.0000000001
 43
0.0000000001
 44
0.00000001
 40
0.0
 40
0.0
 40
0.0
 40
0.0
 40
0.0795072890569485
 40
0.1687775931835663
 40
0.2702648803331782
 40
0.3795692610260628
 40
0.3795692610260628
 40
0.3795692610260628
 40
0.3795692610260628
 10
51.35593188827465
 20
109.1152641436484
 30
0.0
 10
51.32922851546797
 20
109.1105392961065
 30
0.0
 10
51.27254275689599
 20
109.1005094182707
 30
0.0
 10
51.20755861544076
 20
109.0313656552463
 30
0.0
 10
51.16424344587144
 20
108.9397323863002
 30
0.0
 10
51.15877006656476
 20
108.8690652996168
 30
0.0
 10
51.15593188827461
 20
108.8324214311738
 30
0.0
 11
51.35593188827465
 21
109.1152641436484
 31
0.0
 11
51.27939543451116
 21
109.0937332296294
 31
0.0
 11
51.21451053203771
 21
109.0324214311737
 31
0.0
 11
51.1711565435828
 21
108.9406603221022
 31
0.0
 11
51.15593188827461
 21
108.8324214311738
 31
0.0
  0
SPLINE
  5
52A
330
1F
100
AcDbEntity
  8
0
  6
CONTINUOUS
 62
     7
100
AcDbSpline
210
0.0
220
0.0
230
1.0
 70
     8
 71
     3
 72
    15
 73
    11
 74
     9
 42
0.0000000001
 43
0.0000000001
 44
0.00000001
 40
0.0
 40
0.0
 40
0.0
 40
0.0
 40
0.3373208594759156
 40
0.7160626839156322
 40
1.14663677760142
 40
1.610375990409474
 40
2.074115203217695
 40
2.504689296903952
 40
2.883431121343942
 40
3.220751980819873
 40
3.220751980819873
 40
3.220751980819873
 40
3.220751980819873
 10
43.75593188827475
 20
103.2462779365374
 30
0.0
 10
43.73588605785278
 20
103.359493535594
 30
0.0
 10
43.69333289006006
 20
103.5998269257303
 30
0.0
 10
43.39998074779328
 20
103.8769403772521
 30
0.0
 10
43.01121371266819
 20
104.0543441135529
 30
0.0
 10
42.55593188827521
 20
104.115787308985
 30
0.0
 10
42.10065006388208
 20
104.0543441135528
 30
0.0
 10
41.71188302875668
 20
103.8769403772522
 30
0.0
 10
41.41853088648938
 20
103.5998269257304
 30
0.0
 10
41.37597771869662
 20
103.359493535594
 30
0.0
 10
41.35593188827465
 20
103.2462779365374
 30
0.0
 11
43.75593188827475
 21
103.2462779365374
 31
0.0
 11
43.66458395642695
 21
103.5709946093226
 31
0.0
 11
43.40446002569865
 21
103.8462779365373
 31
0.0
 11
43.01515061085679
 21
104.0302133319043
 31
0.0
 11
42.55593188827527
 21
104.0948060739612
 31
0.0
 11
42.09671316569357
 21
104.0302133319043
 31
0.0
 11
41.7074037508512
 21
103.8462779365373
 31
0.0
 11
41.4472798201225
 21
103.5709946093226
 31
0.0
 11
41.35593188827465
 21
103.2462779365374
 31
0.0
  0
SPLINE
  5
52B
330
1F
100
AcDbEntity
  8
0
  6
CONTINUOUS
 62
     7
100
AcDbSpline
210
0.0
220
0.0
230
1.0
 70
     8
 71
     3
 72
    15
 73
    11
 74
     9
 42
0.0000000001
 43
0.0000000001
 44
0.00000001
 40
0.0
 40
0.0
 40
0.0
 40
0.0
 40
0.3373208594759235
 40
0.7160626839155615
 40
1.146636777601402
 40
1.610375990409953
 40
2.074115203218123
 40
2.504689296904002
 40
2.883431121343981
 40
3.220751980819924
 40
3.220751980819924
 40
3.220751980819924
 40
3.220751980819924
 10
54.5559318882747
 20
107.3474972674194
 30
0.0
 10
54.53588605785275
 20
107.460712866476
 30
0.0
 10
54.49333289006005
 20
107.7010462566123
 30
0.0
 10
54.19998074779333
 20
107.9781597081342
 30
0.0
 10
53.81121371266804
 20
108.1555634444349
 30
0.0
 10
53.3559318882749
 20
108.217006639867
 30
0.0
 10
52.90065006388174
 20
108.1555634444348
 30
0.0
 10
52.51188302875655
 20
107.978159708134
 30
0.0
 10
52.21853088648933
 20
107.7010462566125
 30
0.0
 10
52.17597771869657
 20
107.460712866476
 30
0.0
 10
52.15593188827461
 20
107.3474972674194
 30
0.0
 11
54.5559318882747
 21
107.3474972674194
 31
0.0
 11
54.46458395642692
 21
107.6722139402046
 31
0.0
 11
54.20446002569872
 21
107.9474972674193
 31
0.0
 11
53.81515061085679
 21
108.1314326627863
 31
0.0
 11
53.35593188827477
 21
108.1960254048432
 31
0.0
 11
52.89671316569313
 21
108.1314326627863
 31
0.0
 11
52.50740375085115
 21
107.9474972674193
 31
0.0
 11
52.24727982012246
 21
107.6722139402046
 31
0.0
 11
52.15593188827461
 21
107.3474972674194
 31
0.0
  0
SPLINE
  5
52C
330
1F
100
AcDbEntity
  8
0
  6
CONTINUOUS
 62
     7
100
AcDbSpline
210
0.0
220
0.0
230
1.0
 70
     8
 71
     3
 72
    15
 73
    11
 74
     9
 42
0.0000000001
 43
0.0000000001
 44
0.00000001
 40
0.0
 40
0.0
 40
0.0
 40
0.0
 40
0.6324766115174829
 40
1.342617532342125
 40
2.149943958003403
 40
3.019454982018551
 40
3.888966006034264
 40
4.69629243169605
 40
5.406433352520614
 40
6.038909964038067
 40
6.038909964038067
 40
6.038909964038067
 40
6.038909964038067
 10
-72.29406811172521
 20
97.22226619235106
 30
0.0
 10
-72.33165404376624
 20
97.00998694411993
 30
0.0
 10
-72.41144123337729
 20
96.55936183761405
 30
0.0
 10
-72.961476500128
 20
96.03977411601062
 30
0.0
 10
-73.6904146909879
 20
95.70714211044705
 30
0.0
 10
-74.54406811172494
 20
95.59193611901173
 30
0.0
 10
-75.39772153246214
 20
95.70714211044711
 30
0.0
 10
-76.12665972332256
 20
96.03977411601043
 30
0.0
 10
-76.67669499007324
 20
96.55936183761406
 30
0.0
 10
-76.75648217968421
 20
97.00998694411992
 30
0.0
 10
-76.79406811172521
 20
97.22226619235106
 30
0.0
 11
-72.29406811172521
 21
97.22226619235106
 31
0.0
 11
-72.46534548393952
 21
96.61342243087854
 31
0.0
 11
-72.95307785405532
 21
96.09726619235101
 31
0.0
 11
-73.68303300688434
 21
95.75238732603796
 31
0.0
 11
-74.54406811172475
 21
95.63127593468136
 31
0.0
 11
-75.40510321656573
 21
95.75238732603798
 31
0.0
 11
-76.13505836939532
 21
96.09726619235101
 31
0.0
 11
-76.62279073951102
 21
96.61342243087854
 31
0.0
 11
-76.79406811172521
 21
97.22226619235106
 31
0.0
  0
SPLINE
  5
52D
330
1F
100
AcDbEntity
  8
1
  6
CONTINUOUS
 62
     7
100
AcDbSpline
210
0.0
220
0.0
230
1.0
 70
     8
 71
     3
 72
     9
 73
     5
 74
     3
 42
0.0000000001
 43
0.0000000001
 44
0.00000001
 40
0.0
 40
0.0
 40
0.0
 40
0.0
 40
2.223429186728093
 40
4.503157568391865
 40
4.503157568391865
 40
4.503157568391865
 40
4.503157568391865
 10
6.247651703961765
 20
100.4344565705074
 30
0.0
 10
5.750426271448525
 20
99.8840107344218
 30
0.0
 10
4.743385218383167
 20
98.76918128648865
 30
0.0
 10
3.618772080067371
 20
97.77301967227677
 30
0.0
 10
3.049435464398812
 20
97.26871177939226
 30
0.0
 11
6.247651703961765
 21
100.4344565705074
 31
0.0
 11
4.727312743353962
 21
98.81204885564274
 31
0.0
 11
3.049435464398812
 21
97.26871177939226
 31
0.0
  0
SPLINE
  5
52E
330
1F
100
AcDbEntity
  8
1
  6
CONTINUOUS
 62
     7
100
AcDbSpline
210
0.0
220
0.0
230
1.0
 70
     8
 71
     3
 72
     9
 73
     5
 74
     3
 42
0.0000000001
 43
0.0000000001
 44
0.00000001
 40
0.0
 40
0.0
 40
0.0
 40
0.0
 40
2.223429186729447
 40
4.503157568394098
 40
4.503157568394098
 40
4.503157568394098
 40
4.503157568394098
 10
6.60120509455578
 20
100.0809031799154
 30
0.0
 10
6.103979662042382
 20
99.53045734382934
 30
0.0
 10
5.096938608976814
 20
98.41562789589534
 30
0.0
 10
3.972325470660466
 20
97.41946628168299
 30
0.0
 10
3.402988854991691
 20
96.91515838879826
 30
0.0
 11
6.60120509455578
 21
100.0809031799154
 31
0.0
 11
5.080866133947408
 21
98.45849546504942
 31
0.0
 11
3.402988854991691
 21
96.91515838879826
 31
0.0
  0
SPLINE
  5
52F
330
1F
100
AcDbEntity
  8
0
  6
CONTINUOUS
 62
     7
100
AcDbSpline
210
0.0
220
0.0
230
1.0
 70
     8
 71
     3
 72
     9
 73
     5
 74
     3
 42
0.0000000001
 43
0.0000000001
 44
0.00000001
 40
0.0
 40
0.0
 40
0.0
 40
0.0
 40
0.0845278730815144
 40
0.1481780561195694
 40
0.1481780561195694
 40
0.1481780561195694
 40
0.1481780561195694
 10
1.355931427348651
 20
107.8253146499874
 30
0.0
 10
1.383908304132856
 20
107.8361322378159
 30
0.0
 10
1.432951999035511
 20
107.8550955581729
 30
0.0
 10
1.449026565068692
 20
107.9042152060957
 30
0.0
 10
1.45593142734765
 20
107.9253146499873
 30
0.0
 11
1.355931427348651
 21
107.8253146499874
 31
0.0
 11
1.429133543800276
 21
107.86758061117
 31
0.0
 11
1.45593142734765
 21
107.9253146499873
 31
0.0
  0
SPLINE
  5
530
330
1F
100
AcDbEntity
  8
0
  6
CONTINUOUS
 62
     7
100
AcDbSpline
210
0.0
220
0.0
230
1.0
 70
     8
 71
     3
 72
    15
 73
    11
 74
     9
 42
0.0000000001
 43
0.0000000001
 44
0.00000001
 40
0.0
 40
0.0
 40
0.0
 40
0.0
 40
0.0152053329445019
 40
0.0329795907085602
 40
0.0477354473273739
 40
0.067829139294549
 40
0.0898492245640873
 40
0.107405969853726
 40
0.1258970452859682
 40
0.1519426652191535
 40
0.1519426652191535
 40
0.1519426652191535
 40
0.1519426652191535
 10
1.45593142734765
 20
110.0268265469813
 30
0.0
 10
1.455655683481148
 20
110.0217498063085
 30
0.0
 10
1.455057609115344
 20
110.0107386150289
 30
0.0
 10
1.44998504066317
 20
109.995438851475
 30
0.0
 10
1.441431529413575
 20
109.9800598602756
 30
0.0
 10
1.429153997695025
 20
109.9654365403266
 30
0.0
 10
1.413748294108193
 20
109.9527019512578
 30
0.0
 10
1.397227097456033
 20
109.9425588407226
 30
0.0
 10
1.378514269974258
 20
109.9335668261811
 30
0.0
 10
1.364264734828706
 20
109.9293137812062
 30
0.0
 10
1.355931427348651
 20
109.9268265469814
 30
0.0
 11
1.45593142734765
 21
110.0268265469813
 31
0.0
 11
1.454486367251064
 21
110.0116900364432
 31
0.0
 11
1.44911774928778
 21
109.9947459466114
 31
0.0
 11
1.441965831723849
 21
109.9818391507382
 31
0.0
 11
1.429164435081702
 21
109.9663510681944
 31
0.0
 11
1.412273294494611
 21
109.9522240187875
 31
0.0
 11
1.397348842513793
 21
109.9429773957154
 31
0.0
 11
1.380648269269358
 21
109.9350394662657
 31
0.0
 11
1.355931427348651
 21
109.9268265469814
 31
0.0
  0
SPLINE
  5
531
330
1F
100
AcDbEntity
  8
0
  6
CONTINUOUS
 62
     7
100
AcDbSpline
210
0.0
220
0.0
230
1.0
 70
     8
 71
     3
 72
    15
 73
    11
 74
     9
 42
0.0000000001
 43
0.0000000001
 44
0.00000001
 40
0.0
 40
0.0
 40
0.0
 40
0.0
 40
0.0227654835973716
 40
0.0446086152397815
 40
0.0647716798455418
 40
0.0841363458939315
 40
0.1042623145791086
 40
0.1190390145137398
 40
0.1367708791458593
 40
0.1519471636257137
 40
0.1519471636257137
 40
0.1519471636257137
 40
0.1519471636257137
 10
-6.426698787850228
 20
102.1441963317834
 30
0.0
 10
-6.428842826959593
 20
102.1369074987167
 30
0.0
 10
-6.433044038643927
 20
102.1226251423402
 30
0.0
 10
-6.442245770947161
 20
102.1030032563402
 30
0.0
 10
-6.453119577975072
 20
102.0856151337552
 30
0.0
 10
-6.466010034403713
 20
102.0703803328285
 30
0.0
 10
-6.479970144815274
 20
102.0586672590303
 30
0.0
 10
-6.495358328075949
 20
102.0501229743296
 30
0.0
 10
-6.510644528336304
 20
102.0450665953989
 30
0.0
 10
-6.521631784013591
 20
102.0444710021332
 30
0.0
 10
-6.526698787850364
 20
102.0441963317833
 30
0.0
 11
-6.426698787850228
 21
102.1441963317834
 31
0.0
 11
-6.433687234878164
 21
102.1225300249555
 31
0.0
 11
-6.44288332943529
 21
102.1027170432303
 31
0.0
 11
-6.453661196541503
 21
102.0856763051319
 31
0.0
 11
-6.466236357478238
 21
102.0709502867094
 31
0.0
 11
-6.481753712784268
 21
102.0581336451905
 31
0.0
 11
-6.494683825157381
 21
102.0509808097404
 31
0.0
 11
-6.511590925629434
 21
102.0456358142343
 31
0.0
 11
-6.526698787850364
 21
102.0441963317833
 31
0.0
  0
ARC
  5
532
330
1F
100
AcDbEntity
  8
1
  6
CONTINUOUS
 62
     7
100
AcDbCircle
 10
21.47250430173381
 20
77.5450634334684
 30
0.0
 40
0.3999999999997078
100
AcDbArc
 50
135.0000000001252
 51
218.7222642271088
  0
ARC
  5
533
330
1F
100
AcDbEntity
  8
1
  6
CONTINUOUS
 62
     7
100
AcDbCircle
 10
26.15096501905373
 20
82.2235241507874
 30
0.0
 40
0.4000000000007188
100
AcDbArc
 50
53.60521708482253
 51
135.0000000001133
  0
ENDSEC
  0
SECTION
  2
OBJECTS
  0
DICTIONARY
  5
C
330
0
100
AcDbDictionary
  3
ACAD_GROUP
350
D
  3
ACAD_LAYOUT
350
1A
  3
ACAD_MLEADERSTYLE
350
556
  3
ACAD_MLINESTYLE
350
17
  3
ACAD_PLOTSETTINGS
350
19
  3
ACAD_VISUALSTYLE
350
2A
  3
ACDBHEADERROUNDTRIPXREC
350
534
  3
ACDBVARIABLEDICTIONARY
350
554
  0
DICTIONARY
  5
D
102
{ACAD_REACTORS
330
C
102
}
330
C
100
AcDbDictionary
  0
DICTIONARY
  5
1A
102
{ACAD_REACTORS
330
C
102
}
330
C
100
AcDbDictionary
  0
DICTIONARY
  5
556
102
{ACAD_REACTORS
330
C
102
}
330
C
100
AcDbDictionary
  0
DICTIONARY
  5
17
102
{ACAD_REACTORS
330
C
102
}
330
C
100
AcDbDictionary
  3
STANDARD
350
18
  0
DICTIONARY
  5
19
102
{ACAD_REACTORS
330
C
102
}
330
C
100
AcDbDictionary
  0
DICTIONARY
  5
2A
102
{ACAD_REACTORS
330
C
102
}
330
C
100
AcDbDictionary
  3
2DWIREFRAME
350
2F
  3
3D_HIDDEN
350
31
  3
3DWIREFRAME
350
30
  3
BASIC
350
32
  3
BRIGHTEN
350
36
  3
COLORCHANGE
350
3A
  3
CONCEPTUAL
350
34
  3
DIM
350
35
  3
FACEPATTERN
350
39
  3
FLAT
350
2B
  3
FLATWITHEDGES
350
2C
  3
GOURAUD
350
2D
  3
GOURAUDWITHEDGES
350
2E
  3
LINEPATTERN
350
38
  3
REALISTIC
350
33
  3
THICKEN
350
37
  0
DICTIONARY
  5
534
102
{ACAD_REACTORS
330
C
102
}
330
C
100
AcDbDictionary
  3
CEPSNTYPE
350
53D
  3
DIMSTYLEDATA
350
553
  3
FINGERPRINTGUID
350
53E
  3
HYPERLINKBASE
350
537
  3
INSUNITS
350
53C
  3
LAYOUTDICT
350
539
  3
LWETCUNION
350
53B
  3
PLOTSETDICT
350
53A
  3
PSVPSCALE
350
540
  3
PUCSBASE
350
543
  3
PUCSORGBACK
350
549
  3
PUCSORGBOTTOM
350
545
  3
PUCSORGFRONT
350
548
  3
PUCSORGLEFT
350
546
  3
PUCSORGRIGHT
350
547
  3
PUCSORGTOP
350
544
  3
PUCSORTHOREF
350
541
  3
PUCSORTHOVIEW
350
542
  3
STYLESHEET
350
538
  3
TSTACKALIGN
350
535
  3
TSTACKSIZE
350
536
  3
UCSBASE
350
54C
  3
UCSORGBACK
350
552
  3
UCSORGBOTTOM
350
54E
  3
UCSORGFRONT
350
551
  3
UCSORGLEFT
350
54F
  3
UCSORGRIGHT
350
550
  3
UCSORGTOP
350
54D
  3
UCSORTHOREF
350
54A
  3
UCSORTHOVIEW
350
54B
  3
VERSIONGUID
350
53F
  0
DICTIONARY
  5
554
102
{ACAD_REACTORS
330
C
102
}
330
C
100
AcDbDictionary
  0
MLINESTYLE
  5
18
102
{ACAD_REACTORS
330
17
102
}
330
17
100
AcDbMlineStyle
  2
Standard
 70
     0
  3

 62
   256
 51
90.0
 52
90.0
 71
     2
 49
0.5
 62
   256
  6
BYLAYER
 49
-0.5
 62
   256
  6
BYLAYER
  0
ACAD_PROXY_OBJECT
  5
2F
102
{ACAD_REACTORS
330
2A
102
}
330
2A
100
AcDbProxyObject
 90
      499
 91
      501
 93
      436
310
42CC9915DA5C99599C985B595049028333333333333E3BF0000000000000FB0107901411070040501600405405064090741402480A0340
1001
ACAD
1000
AcDbSavedByObjectVersion
1070
     0
  0
ACAD_PROXY_OBJECT
  5
31
102
{ACAD_REACTORS
330
2A
102
}
330
2A
100
AcDbProxyObject
 90
      499
 91
      501
 93
      500
310
424CD108121A5919195B90640502408333333333333E3BF0000000000000FB01079024090700405020000000000001110200405405064090740C02480A0340
1001
ACAD
1000
AcDbSavedByObjectVersion
1070
     0
  0
ACAD_PROXY_OBJECT
  5
30
102
{ACAD_REACTORS
330
2A
102
}
330
2A
100
AcDbProxyObject
 90
      499
 91
      501
 93
      436
310
42CCD915DA5C99599C985B595059028333333333333E3BF0000000000000FB0107901411070040501600405405064090741402480A0340
1001
ACAD
1000
AcDbSavedByObjectVersion
1070
     0
  0
ACAD_PROXY_OBJECT
  5
32
102
{ACAD_REACTORS
330
2A
102
}
330
2A
100
AcDbProxyObject
 90
      499
 91
      501
 93
      388
310
4150985CDA58D07406404333333333333E3BF0000000000000FB0107A41107004050150841D405064090741402480A0350
1001
ACAD
1000
AcDbSavedByObjectVersion
1070
     0
  0
ACAD_PROXY_OBJECT
  5
36
102
{ACAD_REACTORS
330
2A
102
}
330
2A
100
AcDbProxyObject
 90
      499
 91
      501
 93
      428
310
42109C9A59DA1D195B90C409028333333333333E3BF0000000000000FB010790141107004050150841D405064090741402480A029950
1001
ACAD
1000
AcDbSavedByObjectVersion
1070
     0
  0
ACAD_PROXY_OBJECT
  5
3A
102
{ACAD_REACTORS
330
2A
102
}
330
2A
100
AcDbProxyObject
 90
      499
 91
      501
 93
      452
310
42D0DBDB1BDC90DA185B99D95104090240C333333333333E3BF0000000000000FB0108901411070040501508421405064090741402480A0350
1001
ACAD
1000
AcDbSavedByObjectVersion
1070
     0
  0
ACAD_PROXY_OBJECT
  5
34
102
{ACAD_REACTORS
330
2A
102
}
330
2A
100
AcDbProxyObject
 90
      499
 91
      501
 93
      500
310
4290DBDB98D95C1D1D585B10940D028333333333333E3BF0000000000000FB0107902409070040501000000000000111010841D405064090740C02480A0340
1001
ACAD
1000
AcDbSavedByObjectVersion
1070
     0
  0
ACAD_PROXY_OBJECT
  5
35
102
{ACAD_REACTORS
330
2A
102
}
330
2A
100
AcDbProxyObject
 90
      499
 91
      501
 93
      412
310
40D11A5B50B409028333333333333E3BF0000000000000FB010790141107004050150841D405064090741402480A02677FFFFFD0
1001
ACAD
1000
AcDbSavedByObjectVersion
1070
     0
  0
ACAD_PROXY_OBJECT
  5
39
102
{ACAD_REACTORS
330
2A
102
}
330
2A
100
AcDbProxyObject
 90
      499
 91
      501
 93
      444
310
42D19858D95C185D1D195C9B90F409028333333333333E3BF0000000000000FB010790141107004050150841D405064090741402480A0350
1001
ACAD
1000
AcDbSavedByObjectVersion
1070
     0
  0
ACAD_PROXY_OBJECT
  5
2B
102
{ACAD_REACTORS
330
2A
102
}
330
2A
100
AcDbProxyObject
 90
      499
 91
      501
 93
      388
310
41119B185D240901404333333333333E3BF0000000000000F9010740A41107004050150841D405064090741402480A1B50
1001
ACAD
1000
AcDbSavedByObjectVersion
1070
     0
  0
ACAD_PROXY_OBJECT
  5
2C
102
{ACAD_REACTORS
330
2A
102
}
330
2A
100
AcDbProxyObject
 90
      499
 91
      501
 93
      476
310
43519B185D15DA5D1A115919D95CD0140901404333333333333E3BF0000000000000F9010740901411070040501600405405064090741402480A1B50
1001
ACAD
1000
AcDbSavedByObjectVersion
1070
     0
  0
ACAD_PROXY_OBJECT
  5
2D
102
{ACAD_REACTORS
330
2A
102
}
330
2A
100
AcDbProxyObject
 90
      499
 91
      501
 93
      412
310
41D1DBDD5C985D5910240902404333333333333E3BF0000000000000F9010740A411070040501641D405064090741402480A1B50
1001
ACAD
1000
AcDbSavedByObjectVersion
1070
     0
  0
ACAD_PROXY_OBJECT
  5
2E
102
{ACAD_REACTORS
330
2A
102
}
330
2A
100
AcDbProxyObject
 90
      499
 91
      501
 93
      500
310
4411DBDD5C985D5915DA5D1A115919D95CD0340902404333333333333E3BF0000000000000F9010740901411070040501600405405064090741402480A1B50
1001
ACAD
1000
AcDbSavedByObjectVersion
1070
     0
  0
ACAD_PROXY_OBJECT
  5
38
102
{ACAD_REACTORS
330
2A
102
}
330
2A
100
AcDbProxyObject
 90
      499
 91
      501
 93
      444
310
42D31A5B995C185D1D195C9B90E409028333333333333E3BF0000000000000FB010790141107004050750841D405064090741402483A0350
1001
ACAD
1000
AcDbSavedByObjectVersion
1070
     0
  0
ACAD_PROXY_OBJECT
  5
33
102
{ACAD_REACTORS
330
2A
102
}
330
2A
100
AcDbProxyObject
 90
      499
 91
      501
 93
      420
310
425499585B1A5CDD1A58D08409028333333333333E3BF0000000000000FB01079019070040501508421405064090741402480A1B40
1001
ACAD
1000
AcDbSavedByObjectVersion
1070
     0
  0
ACAD_PROXY_OBJECT
  5
37
102
{ACAD_REACTORS
330
2A
102
}
330
2A
100
AcDbProxyObject
 90
      499
 91
      501
 93
      412
310
41D51A1A58DAD95B90D409028333333333333E3BF0000000000000FB010790141107004050150C41D405064090741402480A0350
1001
ACAD
1000
AcDbSavedByObjectVersion
1070
     0
  0
ACAD_PROXY_OBJECT
  5
53D
102
{ACAD_REACTORS
330
534
102
}
330
534
100
AcDbProxyObject
 90
      499
 91
      504
 93
       58
310
4196800000000000
  0
ACAD_PROXY_OBJECT
  5
553
102
{ACAD_REACTORS
330
534
102
}
330
534
100
AcDbProxyObject
 90
      499
 91
      504
 93
     1970
310
7D7A00C180099114D51653117A80C040099ECB812AC0118000800B8123C00A001999999999998E500B810480518000800B810A400A0002B5E8DC0F42B1CFCB8123400A0002B5E8DC0F42ADCFCB8103C0518001000B810AC00A0014AE07A17AD4760FCB81058051800B800B810B000A0002B5E8DC0F42B1CFCB810A800A0000
310
00000000002C0FCB8124C00A0002B5E8DC0F42ADCFCB811340118000000B810400518001000B811240118000400B812B00118000000B811280118000400B8106C0518000400B811500550044400000000000000B8123000A0002B5E8DC0F42B1CFCB810700518000000B811380118000003A80C040099F40
  0
ACAD_PROXY_OBJECT
  5
53E
102
{ACAD_REACTORS
330
534
102
}
330
534
100
AcDbProxyObject
 90
      499
 91
      504
 93
      354
310
4AC0400980099ECDCCCD504C4D10504B4DCDCCCD4B4D0D8CD10B504C10D04B508D4C4C8D8C909110CD104E5F40
  0
ACAD_PROXY_OBJECT
  5
537
102
{ACAD_REACTORS
330
534
102
}
330
534
100
AcDbProxyObject
 90
      499
 91
      504
 93
       50
310
41404000000980
  0
ACAD_PROXY_OBJECT
  5
53C
102
{ACAD_REACTORS
330
534
102
}
330
534
100
AcDbProxyObject
 90
      499
 91
      504
 93
       58
310
4196800040000000
  0
ACAD_PROXY_OBJECT
  5
539
102
{ACAD_REACTORS
330
534
102
}
330
534
100
AcDbProxyObject
 90
      499
 91
      504
 93
       90
310
429500468000000000000000
  0
ACAD_PROXY_OBJECT
  5
53B
102
{ACAD_REACTORS
330
534
102
}
330
534
100
AcDbProxyObject
 90
      499
 91
      504
 93
       58
310
419680074A800000
  0
ACAD_PROXY_OBJECT
  5
53A
102
{ACAD_REACTORS
330
534
102
}
330
534
100
AcDbProxyObject
 90
      499
 91
      504
 93
       90
310
429500464000000000000000
  0
ACAD_PROXY_OBJECT
  5
540
102
{ACAD_REACTORS
330
534
102
}
330
534
100
AcDbProxyObject
 90
      499
 91
      504
 93
       90
310
428A00000000000000000000
  0
ACAD_PROXY_OBJECT
  5
543
102
{ACAD_REACTORS
330
534
102
}
330
534
100
AcDbProxyObject
 90
      499
 91
      504
 93
       90
310
429500400000000000000000
  0
ACAD_PROXY_OBJECT
  5
549
102
{ACAD_REACTORS
330
534
102
}
330
534
100
AcDbProxyObject
 90
      499
 91
      504
 93
      218
310
46828000000000000000000000000000000000000000000000000000
  0
ACAD_PROXY_OBJECT
  5
545
102
{ACAD_REACTORS
330
534
102
}
330
534
100
AcDbProxyObject
 90
      499
 91
      504
 93
      218
310
46828000000000000000000000000000000000000000000000000000
  0
ACAD_PROXY_OBJECT
  5
548
102
{ACAD_REACTORS
330
534
102
}
330
534
100
AcDbProxyObject
 90
      499
 91
      504
 93
      218
310
46828000000000000000000000000000000000000000000000000000
  0
ACAD_PROXY_OBJECT
  5
546
102
{ACAD_REACTORS
330
534
102
}
330
534
100
AcDbProxyObject
 90
      499
 91
      504
 93
      218
310
46828000000000000000000000000000000000000000000000000000
  0
ACAD_PROXY_OBJECT
  5
547
102
{ACAD_REACTORS
330
534
102
}
330
534
100
AcDbProxyObject
 90
      499
 91
      504
 93
      218
310
46828000000000000000000000000000000000000000000000000000
  0
ACAD_PROXY_OBJECT
  5
544
102
{ACAD_REACTORS
330
534
102
}
330
534
100
AcDbProxyObject
 90
      499
 91
      504
 93
      218
310
46828000000000000000000000000000000000000000000000000000
  0
ACAD_PROXY_OBJECT
  5
541
102
{ACAD_REACTORS
330
534
102
}
330
534
100
AcDbProxyObject
 90
      499
 91
      504
 93
       90
310
429500400000000000000000
  0
ACAD_PROXY_OBJECT
  5
542
102
{ACAD_REACTORS
330
534
102
}
330
534
100
AcDbProxyObject
 90
      499
 91
      504
 93
       42
310
411180000000
  0
ACAD_PROXY_OBJECT
  5
538
102
{ACAD_REACTORS
330
534
102
}
330
534
100
AcDbProxyObject
 90
      499
 91
      504
 93
       50
310
41404000000980
  0
ACAD_PROXY_OBJECT
  5
535
102
{ACAD_REACTORS
330
534
102
}
330
534
100
AcDbProxyObject
 90
      499
 91
      504
 93
       58
310
4196800040000000
  0
ACAD_PROXY_OBJECT
  5
536
102
{ACAD_REACTORS
330
534
102
}
330
534
100
AcDbProxyObject
 90
      499
 91
      504
 93
       58
310
4196801180000000
  0
ACAD_PROXY_OBJECT
  5
54C
102
{ACAD_REACTORS
330
534
102
}
330
534
100
AcDbProxyObject
 90
      499
 91
      504
 93
       90
310
429500400000000000000000
  0
ACAD_PROXY_OBJECT
  5
552
102
{ACAD_REACTORS
330
534
102
}
330
534
100
AcDbProxyObject
 90
      499
 91
      504
 93
      218
310
46828000000000000000000000000000000000000000000000000000
  0
ACAD_PROXY_OBJECT
  5
54E
102
{ACAD_REACTORS
330
534
102
}
330
534
100
AcDbProxyObject
 90
      499
 91
      504
 93
      218
310
46828000000000000000000000000000000000000000000000000000
  0
ACAD_PROXY_OBJECT
  5
551
102
{ACAD_REACTORS
330
534
102
}
330
534
100
AcDbProxyObject
 90
      499
 91
      504
 93
      218
310
46828000000000000000000000000000000000000000000000000000
  0
ACAD_PROXY_OBJECT
  5
54F
102
{ACAD_REACTORS
330
534
102
}
330
534
100
AcDbProxyObject
 90
      499
 91
      504
 93
      218
310
46828000000000000000000000000000000000000000000000000000
  0
ACAD_PROXY_OBJECT
  5
550
102
{ACAD_REACTORS
330
534
102
}
330
534
100
AcDbProxyObject
 90
      499
 91
      504
 93
      218
310
46828000000000000000000000000000000000000000000000000000
  0
ACAD_PROXY_OBJECT
  5
54D
102
{ACAD_REACTORS
330
534
102
}
330
534
100
AcDbProxyObject
 90
      499
 91
      504
 93
      218
310
46828000000000000000000000000000000000000000000000000000
  0
ACAD_PROXY_OBJECT
  5
54A
102
{ACAD_REACTORS
330
534
102
}
330
534
100
AcDbProxyObject
 90
      499
 91
      504
 93
       90
310
429500400000000000000000
  0
ACAD_PROXY_OBJECT
  5
54B
102
{ACAD_REACTORS
330
534
102
}
330
534
100
AcDbProxyObject
 90
      499
 91
      504
 93
       42
310
411180000000
  0
ACAD_PROXY_OBJECT
  5
53F
102
{ACAD_REACTORS
330
534
102
}
330
534
100
AcDbProxyObject
 90
      499
 91
      504
 93
      354
310
4AC0400980099ED19051508C50CCCC8B514C0C4E4B4C4C510D4B4E4C8E508B4C0C10CC11118C8D4D9150CD1F40
  0
ENDSEC
  0
EOF
