  0
SECTION
  2
HEADER
  9
$ACADVER
  1
AC1014
  9
$ACADMAINTVER
 70
     9
  9
$DWGCODEPAGE
  3
ANSI_1252
  9
$INSBASE
 10
0.0
 20
0.0
 30
0.0
  9
$EXTMIN
 10
-69.09361241848433
 20
29.64819609463958
 30
0.0
  9
$EXTMAX
 10
70.80638758151554
 20
142.2218078096818
 30
0.0
  9
$LIMMIN
 10
0.0
 20
0.0
  9
$LIMMAX
 10
12.0
 20
9.0
  9
$ORTHOMODE
 70
     0
  9
$REGENMODE
 70
     1
  9
$FILLMODE
 70
     1
  9
$QTEXTMODE
 70
     0
  9
$MIRRTEXT
 70
     1
  9
$DRAGMODE
 70
     2
  9
$LTSCALE
 40
1.0
  9
$OSMODE
 70
    37
  9
$ATTMODE
 70
     1
  9
$TEXTSIZE
 40
0.2
  9
$TRACEWID
 40
0.05
  9
$TEXTSTYLE
  7
STANDARD
  9
$CLAYER
  8
0
  9
$CELTYPE
  6
BYLAYER
  9
$CECOLOR
 62
   256
  9
$CELTSCALE
 40
1.0
  9
$DELOBJ
 70
     1
  9
$DISPSILH
 70
     0
  9
$DIMSCALE
 40
1.0
  9
$DIMASZ
 40
0.18
  9
$DIMEXO
 40
0.0625
  9
$DIMDLI
 40
0.38
  9
$DIMRND
 40
0.0
  9
$DIMDLE
 40
0.0
  9
$DIMEXE
 40
0.18
  9
$DIMTP
 40
0.0
  9
$DIMTM
 40
0.0
  9
$DIMTXT
 40
0.18
  9
$DIMCEN
 40
0.09
  9
$DIMTSZ
 40
0.0
  9
$DIMTOL
 70
     0
  9
$DIMLIM
 70
     0
  9
$DIMTIH
 70
     1
  9
$DIMTOH
 70
     1
  9
$DIMSE1
 70
     0
  9
$DIMSE2
 70
     0
  9
$DIMTAD
 70
     0
  9
$DIMZIN
 70
     0
  9
$DIMBLK
  1

  9
$DIMASO
 70
     1
  9
$DIMSHO
 70
     1
  9
$DIMPOST
  1

  9
$DIMAPOST
  1

  9
$DIMALT
 70
     0
  9
$DIMALTD
 70
     2
  9
$DIMALTF
 40
25.4
  9
$DIMLFAC
 40
1.0
  9
$DIMTOFL
 70
     0
  9
$DIMTVP
 40
0.0
  9
$DIMTIX
 70
     0
  9
$DIMSOXD
 70
     0
  9
$DIMSAH
 70
     0
  9
$DIMBLK1
  1

  9
$DIMBLK2
  1

  9
$DIMSTYLE
  2
STANDARD
  9
$DIMCLRD
 70
     0
  9
$DIMCLRE
 70
     0
  9
$DIMCLRT
 70
     0
  9
$DIMTFAC
 40
1.0
  9
$DIMGAP
 40
0.09
  9
$DIMJUST
 70
     0
  9
$DIMSD1
 70
     0
  9
$DIMSD2
 70
     0
  9
$DIMTOLJ
 70
     1
  9
$DIMTZIN
 70
     0
  9
$DIMALTZ
 70
     0
  9
$DIMALTTZ
 70
     0
  9
$DIMFIT
 70
     3
  9
$DIMUPT
 70
     0
  9
$DIMUNIT
 70
     2
  9
$DIMDEC
 70
     4
  9
$DIMTDEC
 70
     4
  9
$DIMALTU
 70
     2
  9
$DIMALTTD
 70
     2
  9
$DIMTXSTY
  7
STANDARD
  9
$DIMAUNIT
 70
     0
  9
$LUNITS
 70
     2
  9
$LUPREC
 70
     4
  9
$SKETCHINC
 40
0.1
  9
$FILLETRAD
 40
0.5
  9
$AUNITS
 70
     0
  9
$AUPREC
 70
     0
  9
$MENU
  1
.
  9
$ELEVATION
 40
0.0
  9
$PELEVATION
 40
0.0
  9
$THICKNESS
 40
0.0
  9
$LIMCHECK
 70
     0
  9
$CHAMFERA
 40
0.5
  9
$CHAMFERB
 40
0.5
  9
$CHAMFERC
 40
1.0
  9
$CHAMFERD
 40
0.0
  9
$SKPOLY
 70
     0
  9
$TDCREATE
 40
2457662.758905382
  9
$TDUPDATE
 40
2457662.758905394
  9
$TDINDWG
 40
0.0000000116
  9
$TDUSRTIMER
 40
0.0000000116
  9
$USRTIMER
 70
     1
  9
$ANGBASE
 50
0.0
  9
$ANGDIR
 70
     0
  9
$PDMODE
 70
     0
  9
$PDSIZE
 40
0.0
  9
$PLINEWID
 40
0.0
  9
$COORDS
 70
     1
  9
$SPLFRAME
 70
     0
  9
$SPLINETYPE
 70
     6
  9
$SPLINESEGS
 70
     8
  9
$ATTDIA
 70
     0
  9
$ATTREQ
 70
     1
  9
$HANDLING
 70
     1
  9
$HANDSEED
  5
4EF
  9
$SURFTAB1
 70
     6
  9
$SURFTAB2
 70
     6
  9
$SURFTYPE
 70
     6
  9
$SURFU
 70
     6
  9
$SURFV
 70
     6
  9
$UCSNAME
  2

  9
$UCSORG
 10
0.0
 20
0.0
 30
0.0
  9
$UCSXDIR
 10
1.0
 20
0.0
 30
0.0
  9
$UCSYDIR
 10
0.0
 20
1.0
 30
0.0
  9
$PUCSNAME
  2

  9
$PUCSORG
 10
0.0
 20
0.0
 30
0.0
  9
$PUCSXDIR
 10
1.0
 20
0.0
 30
0.0
  9
$PUCSYDIR
 10
0.0
 20
1.0
 30
0.0
  9
$USERI1
 70
     0
  9
$USERI2
 70
     0
  9
$USERI3
 70
     0
  9
$USERI4
 70
     0
  9
$USERI5
 70
     0
  9
$USERR1
 40
16.5
  9
$USERR2
 40
0.0
  9
$USERR3
 40
0.0
  9
$USERR4
 40
0.0
  9
$USERR5
 40
0.0
  9
$WORLDVIEW
 70
     1
  9
$SHADEDGE
 70
     3
  9
$SHADEDIF
 70
    70
  9
$TILEMODE
 70
     1
  9
$MAXACTVP
 70
    64
  9
$PINSBASE
 10
0.0
 20
0.0
 30
0.0
  9
$PLIMCHECK
 70
     0
  9
$PEXTMIN
 10
1.00000000000000E+20
 20
1.00000000000000E+20
 30
1.00000000000000E+20
  9
$PEXTMAX
 10
-1.00000000000000E+20
 20
-1.00000000000000E+20
 30
-1.00000000000000E+20
  9
$PLIMMIN
 10
0.0
 20
0.0
  9
$PLIMMAX
 10
12.0
 20
9.0
  9
$UNITMODE
 70
     0
  9
$VISRETAIN
 70
     1
  9
$PLINEGEN
 70
     0
  9
$PSLTSCALE
 70
     1
  9
$TREEDEPTH
 70
  3020
  9
$PICKSTYLE
 70
     1
  9
$CMLSTYLE
  2
STANDARD
  9
$CMLJUST
 70
     0
  9
$CMLSCALE
 40
1.0
  9
$PROXYGRAPHICS
 70
     1
  9
$MEASUREMENT
 70
     1
  0
ENDSEC
  0
SECTION
  2
CLASSES
  0
CLASS
  1
ACDBDICTIONARYWDFLT
  2
AcDbDictionaryWithDefault
  3
ObjectDBX Classes
 90
        0
280
     0
281
     0
  0
CLASS
  1
VISUALSTYLE
  2
AcDbVisualStyle
  3
ObjectDBX Classes
 90
     4095
280
     0
281
     0
  0
CLASS
  1

  2
exOdDbCircle
  3

 90
        0
280
     0
281
     1
  0
CLASS
  1

  2
exOdDbSpline
  3

 90
        0
280
     0
281
     1
  0
CLASS
  1
XRECORD
  2
AcDbXrecord
  3
AutoCAD 2000
 90
        0
280
     0
281
     0
  0
CLASS
  1
LWPOLYLINE
  2
AcDbPolyline
  3
AutoCAD 2000
 90
        0
280
     0
281
     1
  0
CLASS
  1
HATCH
  2
AcDbHatch
  3
AutoCAD 2000
 90
        0
280
     0
281
     1
  0
CLASS
  1
ACDBPLACEHOLDER
  2
AcDbPlaceHolder
  3
ObjectDBX Classes
 90
        0
280
     0
281
     0
  0
CLASS
  1
LAYOUT
  2
AcDbLayout
  3
ObjectDBX Classes
 90
        0
280
     0
281
     0
  0
ENDSEC
  0
SECTION
  2
TABLES
  0
TABLE
  2
VPORT
  5
8
330
0
100
AcDbSymbolTable
 70
     1
  0
VPORT
  5
29
330
8
100
AcDbSymbolTableRecord
100
AcDbViewportTableRecord
  2
*ACTIVE
 70
     0
 10
0.0
 20
0.0
 11
1.0
 21
1.0
 12
0.85638758151561
 22
85.93500195216069
 13
0.0
 23
0.0
 14
0.5
 24
0.5
 15
0.5
 25
0.5
 16
0.0
 26
0.0
 36
1.0
 17
0.0
 27
0.0
 37
0.0
 40
123.8309728865464
 41
1.60267857142857
 42
50.0
 43
0.0
 44
0.0
 50
0.0
 51
0.0
 71
     0
 72
   100
 73
     1
 74
     3
 75
     0
 76
     0
 77
     0
 78
     0
  0
ENDTAB
  0
TABLE
  2
LTYPE
  5
5
330
0
100
AcDbSymbolTable
 70
     8
  0
LTYPE
  5
14
330
5
100
AcDbSymbolTableRecord
100
AcDbLinetypeTableRecord
  2
BYBLOCK
 70
     0
  3

 72
    65
 73
     0
 40
0.0
  0
LTYPE
  5
15
330
5
100
AcDbSymbolTableRecord
100
AcDbLinetypeTableRecord
  2
BYLAYER
 70
     0
  3

 72
    65
 73
     0
 40
0.0
  0
LTYPE
  5
16
330
5
100
AcDbSymbolTableRecord
100
AcDbLinetypeTableRecord
  2
CONTINUOUS
 70
     0
  3
Solid line
 72
    65
 73
     0
 40
0.0
  0
LTYPE
  5
3B
330
5
100
AcDbSymbolTableRecord
100
AcDbLinetypeTableRecord
  2
DASHED
 70
     0
  3
Dashed
 72
    65
 73
     2
 40
15.0
 49
7.0
 74
     0
 49
-8.0
 74
     0
  0
LTYPE
  5
3C
330
5
100
AcDbSymbolTableRecord
100
AcDbLinetypeTableRecord
  2
DOTTED
 70
     0
  3
Dotted
 72
    65
 73
     2
 40
1.0
 49
0.0
 74
     0
 49
-1.0
 74
     0
  0
LTYPE
  5
3D
330
5
100
AcDbSymbolTableRecord
100
AcDbLinetypeTableRecord
  2
DOT_CENTER
 70
     0
  3
Dot_Center
 72
    65
 73
     4
 40
14.0
 49
12.0
 74
     0
 49
-1.0
 74
     0
 49
0.0
 74
     0
 49
-1.0
 74
     0
  0
LTYPE
  5
3E
330
5
100
AcDbSymbolTableRecord
100
AcDbLinetypeTableRecord
  2
LONG_DASHED
 70
     0
  3
Long_Dashed
 72
    65
 73
     2
 40
15.0
 49
10.0
 74
     0
 49
-5.0
 74
     0
  0
LTYPE
  5
3F
330
5
100
AcDbSymbolTableRecord
100
AcDbLinetypeTableRecord
  2
DASH_CENTER
 70
     0
  3
Dash_Center
 72
    65
 73
     4
 40
14.0
 49
11.0
 74
     0
 49
-1.0
 74
     0
 49
1.0
 74
     0
 49
-1.0
 74
     0
  0
LTYPE
  5
40
330
5
100
AcDbSymbolTableRecord
100
AcDbLinetypeTableRecord
  2
PHANTOM
 70
     0
  3
Phantom
 72
    65
 73
     6
 40
13.0
 49
10.0
 74
     0
 49
-1.0
 74
     0
 49
0.0
 74
     0
 49
-1.0
 74
     0
 49
0.0
 74
     0
 49
-1.0
 74
     0
  0
LTYPE
  5
41
330
5
100
AcDbSymbolTableRecord
100
AcDbLinetypeTableRecord
  2
CENTER_DASH_DASH
 70
     0
  3
Center_Dash_Dash
 72
    65
 73
     6
 40
14.0
 49
9.0
 74
     0
 49
-1.0
 74
     0
 49
1.0
 74
     0
 49
-1.0
 74
     0
 49
1.0
 74
     0
 49
-1.0
 74
     0
  0
ENDTAB
  0
TABLE
  2
LAYER
  5
2
330
0
100
AcDbSymbolTable
 70
     2
  0
LAYER
  5
10
330
2
100
AcDbSymbolTableRecord
100
AcDbLayerTableRecord
  2
0
 70
     0
 62
     7
  6
CONTINUOUS
  0
LAYER
  5
42
330
2
100
AcDbSymbolTableRecord
100
AcDbLayerTableRecord
  2
1
 70
     0
 62
     7
  6
CONTINUOUS
  0
ENDTAB
  0
TABLE
  2
STYLE
  5
3
330
0
100
AcDbSymbolTable
 70
     1
  0
STYLE
  5
11
330
3
100
AcDbSymbolTableRecord
100
AcDbTextStyleTableRecord
  2
STANDARD
 70
     0
 40
0.0
 41
1.0
 50
0.0
 71
     0
 42
0.2
  3
txt
  4

  0
ENDTAB
  0
TABLE
  2
VIEW
  5
6
330
0
100
AcDbSymbolTable
 70
     0
  0
ENDTAB
  0
TABLE
  2
UCS
  5
7
330
0
100
AcDbSymbolTable
 70
     0
  0
ENDTAB
  0
TABLE
  2
APPID
  5
9
330
0
100
AcDbSymbolTable
 70
     1
  0
APPID
  5
12
330
9
100
AcDbSymbolTableRecord
100
AcDbRegAppTableRecord
  2
ACAD
 70
     0
  0
ENDTAB
  0
TABLE
  2
DIMSTYLE
  5
A
330
0
100
AcDbSymbolTable
 70
     1
  0
DIMSTYLE
105
27
330
A
100
AcDbSymbolTableRecord
100
AcDbDimStyleTableRecord
  2
STANDARD
 70
     0
  3

  4

  5

  6

  7

 40
1.0
 41
0.18
 42
0.0625
 43
0.38
 44
0.18
 45
0.0
 46
0.0
 47
0.0
 48
0.0
140
0.18
141
0.09
142
0.0
143
25.4
144
1.0
145
0.0
146
1.0
147
0.09
 71
     0
 72
     0
 73
     1
 74
     1
 75
     0
 76
     0
 77
     0
 78
     0
170
     0
171
     2
172
     0
173
     0
174
     0
175
     0
176
     0
177
     0
178
     0
270
     2
271
     4
272
     4
273
     2
274
     2
340
11
275
     0
280
     0
281
     0
282
     0
283
     1
284
     0
285
     0
286
     0
287
     3
288
     0
  0
ENDTAB
  0
TABLE
  2
BLOCK_RECORD
  5
1
330
0
100
AcDbSymbolTable
 70
     1
  0
BLOCK_RECORD
  5
1F
330
1
100
AcDbSymbolTableRecord
100
AcDbBlockTableRecord
  2
*MODEL_SPACE
  0
BLOCK_RECORD
  5
1B
330
1
100
AcDbSymbolTableRecord
100
AcDbBlockTableRecord
  2
*PAPER_SPACE
  0
ENDTAB
  0
ENDSEC
  0
SECTION
  2
BLOCKS
  0
BLOCK
  5
20
330
1F
100
AcDbEntity
  8
0
100
AcDbBlockBegin
  2
*MODEL_SPACE
 70
     0
 10
0.0
 20
0.0
 30
0.0
  3
*MODEL_SPACE
  1

  0
ENDBLK
  5
21
330
1F
100
AcDbEntity
  8
0
100
AcDbBlockEnd
  0
BLOCK
  5
1C
330
1B
100
AcDbEntity
 67
     1
  8
0
100
AcDbBlockBegin
  2
*PAPER_SPACE
 70
     0
 10
0.0
 20
0.0
 30
0.0
  3
*PAPER_SPACE
  1

  0
ENDBLK
  5
1D
330
1B
100
AcDbEntity
 67
     1
  8
0
100
AcDbBlockEnd
  0
ENDSEC
  0
SECTION
  2
ENTITIES
  0
LINE
  5
43
330
1F
100
AcDbEntity
  8
0
  6
CONTINUOUS
 62
     7
100
AcDbLine
 10
-56.19361241848446
 20
80.9499813456058
 30
0.0
 11
-55.39361241848428
 21
80.9499813456058
 31
0.0
  0
LINE
  5
44
330
1F
100
AcDbEntity
  8
0
  6
CONTINUOUS
 62
     7
100
AcDbLine
 10
-56.19361241848446
 20
80.9499813456058
 30
0.0
 11
-60.09361241848433
 21
80.9499813456058
 31
0.0
  0
LINE
  5
45
330
1F
100
AcDbEntity
  8
0
  6
CONTINUOUS
 62
     7
100
AcDbLine
 10
-60.09361241848433
 20
80.93998134560582
 30
0.0
 11
-60.09361241848433
 21
80.9499813456058
 31
0.0
  0
LINE
  5
46
330
1F
100
AcDbEntity
  8
0
  6
CONTINUOUS
 62
     7
100
AcDbLine
 10
-60.09361241848433
 20
80.48498134560577
 30
0.0
 11
-60.09361241848433
 21
80.93998134560582
 31
0.0
  0
LINE
  5
47
330
1F
100
AcDbEntity
  8
0
  6
CONTINUOUS
 62
     7
100
AcDbLine
 10
-60.09361241848433
 20
80.93998134560582
 30
0.0
 11
-60.69361241848446
 21
80.93998134560582
 31
0.0
  0
LINE
  5
48
330
1F
100
AcDbEntity
  8
0
  6
CONTINUOUS
 62
     7
100
AcDbLine
 10
-60.69361241848446
 20
80.9499813456058
 30
0.0
 11
-64.59361241848433
 21
80.9499813456058
 31
0.0
  0
LINE
  5
49
330
1F
100
AcDbEntity
  8
0
  6
CONTINUOUS
 62
     7
100
AcDbLine
 10
-60.69361241848446
 20
80.93998134560582
 30
0.0
 11
-60.69361241848446
 21
80.9499813456058
 31
0.0
  0
LINE
  5
4A
330
1F
100
AcDbEntity
  8
0
  6
CONTINUOUS
 62
     7
100
AcDbLine
 10
-60.69361241848446
 20
80.48498134560577
 30
0.0
 11
-60.69361241848446
 21
80.93998134560582
 31
0.0
  0
LINE
  5
4B
330
1F
100
AcDbEntity
  8
0
  6
CONTINUOUS
 62
     7
100
AcDbLine
 10
-64.59361241848433
 20
80.9499813456058
 30
0.0
 11
-65.39361241848428
 21
80.9499813456058
 31
0.0
  0
LINE
  5
4C
330
1F
100
AcDbEntity
  8
0
  6
CONTINUOUS
 62
     7
100
AcDbLine
 10
-61.54361241848437
 20
81.68475116547904
 30
0.0
 11
-59.24361241848442
 21
81.68475116547904
 31
0.0
  0
LINE
  5
4D
330
1F
100
AcDbEntity
  8
0
  6
CONTINUOUS
 62
     7
100
AcDbLine
 10
-55.74361241848442
 20
81.68475116547904
 30
0.0
 11
-55.74361241848442
 21
80.9499813456058
 31
0.0
  0
LINE
  5
4E
330
1F
100
AcDbEntity
  8
0
  6
CONTINUOUS
 62
     7
100
AcDbLine
 10
-57.74361241848442
 20
81.68475116547904
 30
0.0
 11
-57.74361241848442
 21
80.9499813456058
 31
0.0
  0
LINE
  5
4F
330
1F
100
AcDbEntity
  8
0
  6
CONTINUOUS
 62
     7
100
AcDbLine
 10
-57.74361241848442
 20
81.68475116547904
 30
0.0
 11
-55.74361241848442
 21
81.68475116547904
 31
0.0
  0
LINE
  5
50
330
1F
100
AcDbEntity
  8
0
  6
CONTINUOUS
 62
     7
100
AcDbLine
 10
-59.24361241848442
 20
81.68475116547904
 30
0.0
 11
-59.24361241848442
 21
80.9499813456058
 31
0.0
  0
LINE
  5
51
330
1F
100
AcDbEntity
  8
0
  6
CONTINUOUS
 62
     7
100
AcDbLine
 10
-61.54361241848437
 20
81.68475116547904
 30
0.0
 11
-61.54361241848437
 21
80.9499813456058
 31
0.0
  0
LINE
  5
52
330
1F
100
AcDbEntity
  8
0
  6
CONTINUOUS
 62
     7
100
AcDbLine
 10
-63.04361241848437
 20
81.68475116547904
 30
0.0
 11
-63.04361241848437
 21
80.9499813456058
 31
0.0
  0
LINE
  5
53
330
1F
100
AcDbEntity
  8
0
  6
CONTINUOUS
 62
     7
100
AcDbLine
 10
-65.04361241848437
 20
81.68475116547904
 30
0.0
 11
-65.04361241848437
 21
80.9499813456058
 31
0.0
  0
LINE
  5
54
330
1F
100
AcDbEntity
  8
0
  6
CONTINUOUS
 62
     7
100
AcDbLine
 10
-65.04361241848437
 20
81.68475116547904
 30
0.0
 11
-63.04361241848437
 21
81.68475116547904
 31
0.0
  0
LINE
  5
55
330
1F
100
AcDbEntity
  8
0
  6
CONTINUOUS
 62
     7
100
AcDbLine
 10
-66.04361241847937
 20
81.5793886942962
 30
0.0
 11
-66.04361241848437
 21
81.57690316501203
 31
0.0
  0
LINE
  5
56
330
1F
100
AcDbEntity
  8
0
  6
CONTINUOUS
 62
     7
100
AcDbLine
 10
-54.74361241848442
 20
81.56878840799504
 30
0.0
 11
-54.74361241848442
 21
80.48498134560589
 31
0.0
  0
LINE
  5
57
330
1F
100
AcDbEntity
  8
0
  6
CONTINUOUS
 62
     7
100
AcDbLine
 10
-54.74361241848942
 20
81.57377078602019
 30
0.0
 11
-54.74361241848442
 21
81.56878840799504
 31
0.0
  0
LINE
  5
58
330
1F
100
AcDbEntity
  8
0
  6
CONTINUOUS
 62
     7
100
AcDbLine
 10
-53.24361241848442
 20
80.69945942267316
 30
0.0
 11
-53.24361241848442
 21
80.48498134560577
 31
0.0
  0
LINE
  5
59
330
1F
100
AcDbEntity
  8
0
  6
CONTINUOUS
 62
     7
100
AcDbLine
 10
-66.04361241848437
 20
81.57690316501203
 30
0.0
 11
-66.04361241848437
 21
80.48498134560577
 31
0.0
  0
LINE
  5
5A
330
1F
100
AcDbEntity
  8
0
  6
CONTINUOUS
 62
     7
100
AcDbLine
 10
-67.54361241848437
 20
80.48498134560589
 30
0.0
 11
-67.54361241848437
 21
80.73941220228153
 31
0.0
  0
LINE
  5
5B
330
1F
100
AcDbEntity
  8
0
  6
CONTINUOUS
 62
     7
100
AcDbLine
 10
-66.04361241848437
 20
80.48498134560577
 30
0.0
 11
-54.74361241848442
 21
80.48498134560589
 31
0.0
  0
LINE
  5
5C
330
1F
100
AcDbEntity
  8
0
  6
CONTINUOUS
 62
     7
100
AcDbLine
 10
8.60638709031173
 20
80.9499813456058
 30
0.0
 11
7.10638709031173
 21
80.9499813456058
 31
0.0
  0
LINE
  5
5D
330
1F
100
AcDbEntity
  8
0
  6
CONTINUOUS
 62
     7
100
AcDbLine
 10
9.40638709031168
 20
80.9499813456058
 30
0.0
 11
8.60638709031173
 21
80.9499813456058
 31
0.0
  0
LINE
  5
5E
330
1F
100
AcDbEntity
  8
0
  6
CONTINUOUS
 62
     7
100
AcDbLine
 10
6.30638709031155
 20
80.9499813456058
 30
0.0
 11
7.10638709031173
 21
80.9499813456058
 31
0.0
  0
LINE
  5
5F
330
1F
100
AcDbEntity
  8
0
  6
CONTINUOUS
 62
     7
100
AcDbLine
 10
-7.74361290968841
 20
80.9499813456058
 30
0.0
 11
-8.54361290968836
 21
80.9499813456058
 31
0.0
  0
LINE
  5
60
330
1F
100
AcDbEntity
  8
0
  6
CONTINUOUS
 62
     7
100
AcDbLine
 10
-10.04361290968836
 20
80.9499813456058
 30
0.0
 11
-10.84361290968832
 21
80.9499813456058
 31
0.0
  0
LINE
  5
61
330
1F
100
AcDbEntity
  8
0
  6
CONTINUOUS
 62
     7
100
AcDbLine
 10
-8.54361290968836
 20
80.9499813456058
 30
0.0
 11
-10.04361290968836
 21
80.9499813456058
 31
0.0
  0
LINE
  5
62
330
1F
100
AcDbEntity
  8
0
  6
CONTINUOUS
 62
     7
100
AcDbLine
 10
70.60638758151572
 20
73.58498134560591
 30
0.0
 11
70.60638758151572
 21
75.08498134560602
 31
0.0
  0
LINE
  5
63
330
1F
100
AcDbEntity
  8
0
  6
CONTINUOUS
 62
     7
100
AcDbLine
 10
70.60638758151572
 20
76.78498134560448
 30
0.0
 11
70.60638758151572
 21
76.89003237132624
 31
0.0
  0
LINE
  5
64
330
1F
100
AcDbEntity
  8
0
  6
CONTINUOUS
 62
     7
100
AcDbLine
 10
70.60638758151572
 20
75.08498134560602
 30
0.0
 11
70.60638758151572
 21
76.78498134560448
 31
0.0
  0
LINE
  5
65
330
1F
100
AcDbEntity
  8
0
  6
CONTINUOUS
 62
     7
100
AcDbLine
 10
56.45638758151563
 20
80.32498134560592
 30
0.0
 11
57.30638758151554
 21
80.32498134560592
 31
0.0
  0
LINE
  5
66
330
1F
100
AcDbEntity
  8
0
  6
CONTINUOUS
 62
     7
100
AcDbLine
 10
57.45638758151563
 20
80.43998134560593
 30
0.0
 11
56.60638758151572
 21
80.43998134560593
 31
0.0
  0
LINE
  5
67
330
1F
100
AcDbEntity
  8
0
  6
CONTINUOUS
 62
     7
100
AcDbLine
 10
59.45638758151563
 20
80.43998134560593
 30
0.0
 11
60.95638758151563
 21
80.43998134560593
 31
0.0
  0
LINE
  5
68
330
1F
100
AcDbEntity
  8
0
  6
CONTINUOUS
 62
     7
100
AcDbLine
 10
57.45638758151563
 20
80.33498134560591
 30
0.0
 11
57.30638758151554
 21
80.33498134560591
 31
0.0
  0
LINE
  5
69
330
1F
100
AcDbEntity
  8
0
  6
CONTINUOUS
 62
     7
100
AcDbLine
 10
63.25638758151558
 20
80.43998134560593
 30
0.0
 11
64.75638758151558
 21
80.43998134560593
 31
0.0
  0
LINE
  5
6A
330
1F
100
AcDbEntity
  8
0
  6
CONTINUOUS
 62
     7
100
AcDbLine
 10
66.75638758151558
 20
80.43998134560593
 30
0.0
 11
67.60638758151572
 21
80.43998134560593
 31
0.0
  0
LINE
  5
6B
330
1F
100
AcDbEntity
  8
0
  6
CONTINUOUS
 62
     7
100
AcDbLine
 10
67.75638758151558
 20
80.33498134560591
 30
0.0
 11
66.90638758151567
 21
80.33498134560591
 31
0.0
  0
LINE
  5
6C
330
1F
100
AcDbEntity
  8
0
  6
CONTINUOUS
 62
     7
100
AcDbLine
 10
64.75638758151558
 20
80.32498134560592
 30
0.0
 11
63.25638758151558
 21
80.32498134560592
 31
0.0
  0
LINE
  5
6D
330
1F
100
AcDbEntity
  8
0
  6
CONTINUOUS
 62
     7
100
AcDbLine
 10
64.75638758151558
 20
80.33498134560591
 30
0.0
 11
63.25638758151558
 21
80.33498134560591
 31
0.0
  0
LINE
  5
6E
330
1F
100
AcDbEntity
  8
0
  6
CONTINUOUS
 62
     7
100
AcDbLine
 10
63.25638758151558
 20
80.94998134560592
 30
0.0
 11
64.75638758151558
 21
80.94998134560592
 31
0.0
  0
LINE
  5
6F
330
1F
100
AcDbEntity
  8
0
  6
CONTINUOUS
 62
     7
100
AcDbLine
 10
59.45638758151563
 20
80.94998134560592
 30
0.0
 11
60.95638758151563
 21
80.94998134560592
 31
0.0
  0
LINE
  5
70
330
1F
100
AcDbEntity
  8
0
  6
CONTINUOUS
 62
     7
100
AcDbLine
 10
60.95638758151563
 20
80.32498134560592
 30
0.0
 11
59.45638758151563
 21
80.32498134560592
 31
0.0
  0
LINE
  5
71
330
1F
100
AcDbEntity
  8
0
  6
CONTINUOUS
 62
     7
100
AcDbLine
 10
60.95638758151563
 20
80.33498134560591
 30
0.0
 11
59.45638758151563
 21
80.33498134560591
 31
0.0
  0
LINE
  5
72
330
1F
100
AcDbEntity
  8
0
  6
CONTINUOUS
 62
     7
100
AcDbLine
 10
57.45638758151563
 20
80.32498134560592
 30
0.0
 11
57.30638758151554
 21
80.32498134560592
 31
0.0
  0
LINE
  5
73
330
1F
100
AcDbEntity
  8
0
  6
CONTINUOUS
 62
     7
100
AcDbLine
 10
57.45638758151563
 20
80.94998134560592
 30
0.0
 11
57.10638758151572
 21
80.94998134560592
 31
0.0
  0
LINE
  5
74
330
1F
100
AcDbEntity
  8
0
  6
CONTINUOUS
 62
     7
100
AcDbLine
 10
57.45638758151563
 20
80.42998134560594
 30
0.0
 11
56.45638758151563
 21
80.42998134560594
 31
0.0
  0
LINE
  5
75
330
1F
100
AcDbEntity
  8
0
  6
CONTINUOUS
 62
     7
100
AcDbLine
 10
57.30638758151554
 20
80.33498134560591
 30
0.0
 11
56.45638758151563
 21
80.33498134560591
 31
0.0
  0
LINE
  5
76
330
1F
100
AcDbEntity
  8
0
  6
CONTINUOUS
 62
     7
100
AcDbLine
 10
56.60638758151572
 20
80.43998134560593
 30
0.0
 11
56.45638758151563
 21
80.43998134560593
 31
0.0
  0
LINE
  5
77
330
1F
100
AcDbEntity
  8
0
  6
CONTINUOUS
 62
     7
100
AcDbLine
 10
60.95638758151563
 20
80.42998134560594
 30
0.0
 11
59.45638758151563
 21
80.42998134560594
 31
0.0
  0
LINE
  5
78
330
1F
100
AcDbEntity
  8
0
  6
CONTINUOUS
 62
     7
100
AcDbLine
 10
64.75638758151558
 20
80.42998134560594
 30
0.0
 11
63.25638758151558
 21
80.42998134560594
 31
0.0
  0
LINE
  5
79
330
1F
100
AcDbEntity
  8
0
  6
CONTINUOUS
 62
     7
100
AcDbLine
 10
67.60638758151572
 20
80.44998134560592
 30
0.0
 11
67.60638758151572
 21
80.43998134560593
 31
0.0
  0
LINE
  5
7A
330
1F
100
AcDbEntity
  8
0
  6
CONTINUOUS
 62
     7
100
AcDbLine
 10
56.60638758151572
 20
80.44998134560592
 30
0.0
 11
56.60638758151572
 21
80.43998134560593
 31
0.0
  0
LINE
  5
7B
330
1F
100
AcDbEntity
  8
0
  6
CONTINUOUS
 62
     7
100
AcDbLine
 10
66.90638758151567
 20
80.32498134560592
 30
0.0
 11
66.75638758151558
 21
80.32498134560592
 31
0.0
  0
LINE
  5
7C
330
1F
100
AcDbEntity
  8
0
  6
CONTINUOUS
 62
     7
100
AcDbLine
 10
66.90638758151567
 20
80.33498134560591
 30
0.0
 11
66.75638758151558
 21
80.33498134560591
 31
0.0
  0
LINE
  5
7D
330
1F
100
AcDbEntity
  8
0
  6
CONTINUOUS
 62
     7
100
AcDbLine
 10
67.60638758151572
 20
80.43998134560593
 30
0.0
 11
67.75638758151558
 21
80.43998134560593
 31
0.0
  0
LINE
  5
7E
330
1F
100
AcDbEntity
  8
0
  6
CONTINUOUS
 62
     7
100
AcDbLine
 10
66.75638758151558
 20
80.94998134560592
 30
0.0
 11
67.10638758151572
 21
80.94998134560592
 31
0.0
  0
LINE
  5
7F
330
1F
100
AcDbEntity
  8
0
  6
CONTINUOUS
 62
     7
100
AcDbLine
 10
66.90638758151567
 20
80.32498134560592
 30
0.0
 11
67.75638758151558
 21
80.32498134560592
 31
0.0
  0
LINE
  5
80
330
1F
100
AcDbEntity
  8
0
  6
CONTINUOUS
 62
     7
100
AcDbLine
 10
67.75638758151558
 20
80.42998134560594
 30
0.0
 11
66.75638758151558
 21
80.42998134560594
 31
0.0
  0
LINE
  5
81
330
1F
100
AcDbEntity
  8
0
  6
CONTINUOUS
 62
     7
100
AcDbLine
 10
53.60638758151572
 20
76.89003237132624
 30
0.0
 11
53.60638758151572
 21
76.78498134560448
 31
0.0
  0
LINE
  5
82
330
1F
100
AcDbEntity
  8
0
  6
CONTINUOUS
 62
     7
100
AcDbLine
 10
53.60638758151572
 20
75.08498134560602
 30
0.0
 11
53.60638758151572
 21
73.58498134560591
 31
0.0
  0
LINE
  5
83
330
1F
100
AcDbEntity
  8
0
  6
CONTINUOUS
 62
     7
100
AcDbLine
 10
53.60638758151572
 20
76.78498134560448
 30
0.0
 11
53.60638758151572
 21
75.08498134560602
 31
0.0
  0
LINE
  5
84
330
1F
100
AcDbEntity
  8
0
  6
CONTINUOUS
 62
     7
100
AcDbLine
 10
53.40638758151567
 20
80.48498134560589
 30
0.0
 11
53.40638758151567
 21
76.78498134560448
 31
0.0
  0
LINE
  5
85
330
1F
100
AcDbEntity
  8
0
  6
CONTINUOUS
 62
     7
100
AcDbLine
 10
53.40638758151567
 20
75.08498134560591
 30
0.0
 11
53.40638758151567
 21
76.78498134560448
 31
0.0
  0
LINE
  5
86
330
1F
100
AcDbEntity
  8
0
  6
CONTINUOUS
 62
     7
100
AcDbLine
 10
53.60638758151572
 20
75.08498134560602
 30
0.0
 11
53.40638758151567
 21
75.08498134560591
 31
0.0
  0
LINE
  5
87
330
1F
100
AcDbEntity
  8
0
  6
CONTINUOUS
 62
     7
100
AcDbLine
 10
53.40638758151567
 20
76.78498134560448
 30
0.0
 11
53.60638758151572
 21
76.78498134560448
 31
0.0
  0
LINE
  5
88
330
1F
100
AcDbEntity
  8
0
  6
CONTINUOUS
 62
     7
100
AcDbLine
 10
53.60638758151572
 20
76.89003237132624
 30
0.0
 11
53.60638758151572
 21
76.78498134560448
 31
0.0
  0
LINE
  5
89
330
1F
100
AcDbEntity
  8
0
  6
CONTINUOUS
 62
     7
100
AcDbLine
 10
53.60638758151572
 20
75.08498134560602
 30
0.0
 11
53.60638758151572
 21
73.58498134560591
 31
0.0
  0
LINE
  5
8A
330
1F
100
AcDbEntity
  8
0
  6
CONTINUOUS
 62
     7
100
AcDbLine
 10
53.60638758151572
 20
76.78498134560448
 30
0.0
 11
53.60638758151572
 21
75.08498134560602
 31
0.0
  0
LINE
  5
8B
330
1F
100
AcDbEntity
  8
0
  6
CONTINUOUS
 62
     7
100
AcDbLine
 10
54.95638758151563
 20
80.48498134560589
 30
0.0
 11
53.40638758151567
 21
80.48498134560589
 31
0.0
  0
LINE
  5
8C
330
1F
100
AcDbEntity
  8
0
  6
CONTINUOUS
 62
     7
100
AcDbLine
 10
54.95638758151563
 20
73.51195152710318
 30
0.0
 11
54.95638758151563
 21
74.98120388678353
 31
0.0
  0
LINE
  5
8D
330
1F
100
AcDbEntity
  8
0
  6
CONTINUOUS
 62
     7
100
AcDbLine
 10
54.95638758151563
 20
74.98120388678353
 30
0.0
 11
54.95638758151563
 21
75.29835269976763
 31
0.0
  0
LINE
  5
8E
330
1F
100
AcDbEntity
  8
0
  6
CONTINUOUS
 62
     7
100
AcDbLine
 10
54.95638758151563
 20
80.69945942267327
 30
0.0
 11
54.95638758151563
 21
79.47061605336546
 31
0.0
  0
LINE
  5
8F
330
1F
100
AcDbEntity
  8
0
  6
CONTINUOUS
 62
     7
100
AcDbLine
 10
54.95638758151563
 20
79.1128451769655
 30
0.0
 11
54.95638758151563
 21
75.29835269976763
 31
0.0
  0
LINE
  5
90
330
1F
100
AcDbEntity
  8
0
  6
CONTINUOUS
 62
     7
100
AcDbLine
 10
56.45638758151563
 20
80.48498134560589
 30
0.0
 11
56.60761408582857
 21
80.48498134560589
 31
0.0
  0
LINE
  5
91
330
1F
100
AcDbEntity
  8
0
  6
CONTINUOUS
 62
     7
100
AcDbLine
 10
56.45638758151563
 20
80.03498134560596
 30
0.0
 11
56.45638758151563
 21
80.48498134560589
 31
0.0
  0
LINE
  5
92
330
1F
100
AcDbEntity
  8
0
  6
CONTINUOUS
 62
     7
100
AcDbLine
 10
63.25638758151558
 20
80.03498134560596
 30
0.0
 11
63.25638758151558
 21
81.68475116547904
 31
0.0
  0
LINE
  5
93
330
1F
100
AcDbEntity
  8
0
  6
CONTINUOUS
 62
     7
100
AcDbLine
 10
60.95638758151563
 20
80.03498134560596
 30
0.0
 11
60.95638758151563
 21
81.68475116547904
 31
0.0
  0
LINE
  5
94
330
1F
100
AcDbEntity
  8
0
  6
CONTINUOUS
 62
     7
100
AcDbLine
 10
66.75638758151558
 20
81.68475116547916
 30
0.0
 11
64.75638758151558
 21
81.68475116547904
 31
0.0
  0
LINE
  5
95
330
1F
100
AcDbEntity
  8
0
  6
CONTINUOUS
 62
     7
100
AcDbLine
 10
59.45638758151563
 20
80.03498134560596
 30
0.0
 11
59.45638758151563
 21
81.68475116547904
 31
0.0
  0
LINE
  5
96
330
1F
100
AcDbEntity
  8
0
  6
CONTINUOUS
 62
     7
100
AcDbLine
 10
57.45638758151563
 20
80.03498134560596
 30
0.0
 11
57.45638758151563
 21
81.68475116547916
 31
0.0
  0
LINE
  5
97
330
1F
100
AcDbEntity
  8
0
  6
CONTINUOUS
 62
     7
100
AcDbLine
 10
59.45638758151563
 20
81.68475116547904
 30
0.0
 11
57.45638758151563
 21
81.68475116547916
 31
0.0
  0
LINE
  5
98
330
1F
100
AcDbEntity
  8
0
  6
CONTINUOUS
 62
     7
100
AcDbLine
 10
66.75638758151558
 20
80.03498134560596
 30
0.0
 11
66.75638758151558
 21
81.68475116547916
 31
0.0
  0
LINE
  5
99
330
1F
100
AcDbEntity
  8
0
  6
CONTINUOUS
 62
     7
100
AcDbLine
 10
64.75638758151558
 20
80.03498134560596
 30
0.0
 11
64.75638758151558
 21
81.68475116547904
 31
0.0
  0
LINE
  5
9A
330
1F
100
AcDbEntity
  8
0
  6
CONTINUOUS
 62
     7
100
AcDbLine
 10
69.25638758151558
 20
80.48498134560589
 30
0.0
 11
70.80638758151554
 21
80.48498134560589
 31
0.0
  0
LINE
  5
9B
330
1F
100
AcDbEntity
  8
0
  6
CONTINUOUS
 62
     7
100
AcDbLine
 10
70.80638758151554
 20
80.48498134560589
 30
0.0
 11
70.80638758151554
 21
76.78498134560448
 31
0.0
  0
LINE
  5
9C
330
1F
100
AcDbEntity
  8
0
  6
CONTINUOUS
 62
     7
100
AcDbLine
 10
69.25638758151558
 20
79.47736556772816
 30
0.0
 11
69.25638758151558
 21
80.73941220228164
 31
0.0
  0
LINE
  5
9D
330
1F
100
AcDbEntity
  8
0
  6
CONTINUOUS
 62
     7
100
AcDbLine
 10
67.75638758151558
 20
80.48498134560589
 30
0.0
 11
67.75638758151172
 21
81.57938869429631
 31
0.0
  0
LINE
  5
9E
330
1F
100
AcDbEntity
  8
0
  6
CONTINUOUS
 62
     7
100
AcDbLine
 10
56.45638758151563
 20
81.35265622280122
 30
0.0
 11
56.45638758152154
 21
81.5737707860203
 31
0.0
  0
LINE
  5
9F
330
1F
100
AcDbEntity
  8
0
  6
CONTINUOUS
 62
     7
100
AcDbLine
 10
56.45638758151563
 20
80.48498134560589
 30
0.0
 11
56.45638758151563
 21
81.35265622280122
 31
0.0
  0
LINE
  5
A0
330
1F
100
AcDbEntity
  8
0
  6
CONTINUOUS
 62
     7
100
AcDbLine
 10
63.25638758151558
 20
81.68475116547904
 30
0.0
 11
60.95638758151563
 21
81.68475116547904
 31
0.0
  0
LINE
  5
A1
330
1F
100
AcDbEntity
  8
0
  6
CONTINUOUS
 62
     7
100
AcDbLine
 10
54.95638758151563
 20
79.47061605336546
 30
0.0
 11
54.95638758151563
 21
79.1128451769655
 31
0.0
  0
LINE
  5
A2
330
1F
100
AcDbEntity
  8
0
  6
CONTINUOUS
 62
     7
100
AcDbLine
 10
70.60638758151572
 20
76.78498134560448
 30
0.0
 11
70.80638758151554
 21
76.78498134560448
 31
0.0
  0
LINE
  5
A3
330
1F
100
AcDbEntity
  8
0
  6
CONTINUOUS
 62
     7
100
AcDbLine
 10
70.80638758151554
 20
75.08498134560591
 30
0.0
 11
70.80638758151554
 21
76.78498134560448
 31
0.0
  0
LINE
  5
A4
330
1F
100
AcDbEntity
  8
0
  6
CONTINUOUS
 62
     7
100
AcDbLine
 10
70.60638758151572
 20
73.58498134560591
 30
0.0
 11
70.60638758151572
 21
75.08498134560602
 31
0.0
  0
LINE
  5
A5
330
1F
100
AcDbEntity
  8
0
  6
CONTINUOUS
 62
     7
100
AcDbLine
 10
70.80638758151554
 20
75.08498134560591
 30
0.0
 11
70.60638758151572
 21
75.08498134560602
 31
0.0
  0
LINE
  5
A6
330
1F
100
AcDbEntity
  8
0
  6
CONTINUOUS
 62
     7
100
AcDbLine
 10
69.25638758151558
 20
74.98120388678353
 30
0.0
 11
69.25638758151558
 21
75.29835269976763
 31
0.0
  0
LINE
  5
A7
330
1F
100
AcDbEntity
  8
0
  6
CONTINUOUS
 62
     7
100
AcDbLine
 10
69.25638758151558
 20
74.98120388678353
 30
0.0
 11
69.25638758151558
 21
73.51195152710318
 31
0.0
  0
LINE
  5
A8
330
1F
100
AcDbEntity
  8
0
  6
CONTINUOUS
 62
     7
100
AcDbLine
 10
69.25638758151558
 20
79.13412011607352
 30
0.0
 11
69.25638758151558
 21
75.29835269976763
 31
0.0
  0
LINE
  5
A9
330
1F
100
AcDbEntity
  8
0
  6
CONTINUOUS
 62
     7
100
AcDbLine
 10
70.60638758151572
 20
76.78498134560448
 30
0.0
 11
70.60638758151572
 21
76.89003237132624
 31
0.0
  0
LINE
  5
AA
330
1F
100
AcDbEntity
  8
0
  6
CONTINUOUS
 62
     7
100
AcDbLine
 10
70.60638758151572
 20
75.08498134560602
 30
0.0
 11
70.60638758151572
 21
76.78498134560448
 31
0.0
  0
LINE
  5
AB
330
1F
100
AcDbEntity
  8
0
  6
CONTINUOUS
 62
     7
100
AcDbLine
 10
69.25638758151558
 20
79.13412011607352
 30
0.0
 11
69.25638758151558
 21
79.47736556772816
 31
0.0
  0
LINE
  5
AC
330
1F
100
AcDbEntity
  8
0
  6
CONTINUOUS
 62
     7
100
AcDbLine
 10
60.95638758151563
 20
80.03498134560596
 30
0.0
 11
59.45638758151563
 21
80.03498134560596
 31
0.0
  0
LINE
  5
AD
330
1F
100
AcDbEntity
  8
0
  6
CONTINUOUS
 62
     7
100
AcDbLine
 10
57.45638758151563
 20
80.03498134560596
 30
0.0
 11
56.45638758151563
 21
80.03498134560596
 31
0.0
  0
LINE
  5
AE
330
1F
100
AcDbEntity
  8
0
  6
CONTINUOUS
 62
     7
100
AcDbLine
 10
57.45638758151563
 20
74.78498128313481
 30
0.0
 11
57.45638758151563
 21
72.89487884841117
 31
0.0
  0
LINE
  5
AF
330
1F
100
AcDbEntity
  8
0
  6
CONTINUOUS
 62
     7
100
AcDbLine
 10
57.45638758151563
 20
74.78498128313481
 30
0.0
 11
57.45638758151563
 21
80.03498134560596
 31
0.0
  0
LINE
  5
B0
330
1F
100
AcDbEntity
  8
0
  6
CONTINUOUS
 62
     7
100
AcDbLine
 10
56.45638758151563
 20
74.78498128313481
 30
0.0
 11
56.45638758151563
 21
72.08498134580395
 31
0.0
  0
LINE
  5
B1
330
1F
100
AcDbEntity
  8
0
  6
CONTINUOUS
 62
     7
100
AcDbLine
 10
56.45638758151563
 20
74.78498128313481
 30
0.0
 11
56.45638758151563
 21
80.03498134560596
 31
0.0
  0
LINE
  5
B2
330
1F
100
AcDbEntity
  8
0
  6
CONTINUOUS
 62
     7
100
AcDbLine
 10
57.45638758151563
 20
74.78498128313481
 30
0.0
 11
56.45638758151563
 21
74.78498128313481
 31
0.0
  0
LINE
  5
B3
330
1F
100
AcDbEntity
  8
0
  6
CONTINUOUS
 62
     7
100
AcDbLine
 10
67.55638758151554
 20
71.88498134580391
 30
0.0
 11
56.65638758151567
 21
71.88498134580391
 31
0.0
  0
LINE
  5
B4
330
1F
100
AcDbEntity
  8
0
  6
CONTINUOUS
 62
     7
100
AcDbLine
 10
63.25638758151558
 20
72.89487884841117
 30
0.0
 11
63.25638758151558
 21
74.78498128304386
 31
0.0
  0
LINE
  5
B5
330
1F
100
AcDbEntity
  8
0
  6
CONTINUOUS
 62
     7
100
AcDbLine
 10
60.95638758151563
 20
74.78498128304386
 30
0.0
 11
60.95638758151563
 21
72.89487884841117
 31
0.0
  0
LINE
  5
B6
330
1F
100
AcDbEntity
  8
0
  6
CONTINUOUS
 62
     7
100
AcDbLine
 10
63.25638758151558
 20
72.89487884841117
 30
0.0
 11
60.95638758151563
 21
72.89487884841117
 31
0.0
  0
LINE
  5
B7
330
1F
100
AcDbEntity
  8
0
  6
CONTINUOUS
 62
     7
100
AcDbLine
 10
60.95638758151563
 20
76.28498128304386
 30
0.0
 11
60.95638758151563
 21
74.78498128304386
 31
0.0
  0
LINE
  5
B8
330
1F
100
AcDbEntity
  8
0
  6
CONTINUOUS
 62
     7
100
AcDbLine
 10
59.45638758151563
 20
76.28498128304398
 30
0.0
 11
59.45638758151563
 21
80.03498134560596
 31
0.0
  0
LINE
  5
B9
330
1F
100
AcDbEntity
  8
0
  6
CONTINUOUS
 62
     7
100
AcDbLine
 10
60.95638758151563
 20
80.03498134560596
 30
0.0
 11
60.95638758151563
 21
76.28498128304386
 31
0.0
  0
LINE
  5
BA
330
1F
100
AcDbEntity
  8
0
  6
CONTINUOUS
 62
     7
100
AcDbLine
 10
67.75638758151558
 20
74.78498128313481
 30
0.0
 11
67.75638758151558
 21
80.03498134560596
 31
0.0
  0
LINE
  5
BB
330
1F
100
AcDbEntity
  8
0
  6
CONTINUOUS
 62
     7
100
AcDbLine
 10
63.25638758151558
 20
76.28498128304398
 30
0.0
 11
64.75638758151558
 21
76.28498128304386
 31
0.0
  0
LINE
  5
BC
330
1F
100
AcDbEntity
  8
0
  6
CONTINUOUS
 62
     7
100
AcDbLine
 10
63.25638758151558
 20
76.28498128304398
 30
0.0
 11
63.25638758151558
 21
80.03498134560596
 31
0.0
  0
LINE
  5
BD
330
1F
100
AcDbEntity
  8
0
  6
CONTINUOUS
 62
     7
100
AcDbLine
 10
59.45638758151563
 20
74.78498128304386
 30
0.0
 11
59.45638758151563
 21
76.28498128304398
 31
0.0
  0
LINE
  5
BE
330
1F
100
AcDbEntity
  8
0
  6
CONTINUOUS
 62
     7
100
AcDbLine
 10
59.45638758151563
 20
76.28498128304398
 30
0.0
 11
60.95638758151563
 21
76.28498128304386
 31
0.0
  0
LINE
  5
BF
330
1F
100
AcDbEntity
  8
0
  6
CONTINUOUS
 62
     7
100
AcDbLine
 10
63.25638758151558
 20
74.78498128304386
 30
0.0
 11
63.25638758151558
 21
76.28498128304398
 31
0.0
  0
LINE
  5
C0
330
1F
100
AcDbEntity
  8
0
  6
CONTINUOUS
 62
     7
100
AcDbLine
 10
64.75638758151558
 20
74.78498128304386
 30
0.0
 11
63.25638758151558
 21
74.78498128304386
 31
0.0
  0
LINE
  5
C1
330
1F
100
AcDbEntity
  8
0
  6
CONTINUOUS
 62
     7
100
AcDbLine
 10
56.15638758151567
 20
70.484981345606
 30
0.0
 11
68.05638758151554
 21
70.484981345606
 31
0.0
  0
LINE
  5
C2
330
1F
100
AcDbEntity
  8
0
  6
CONTINUOUS
 62
     7
100
AcDbLine
 10
59.45638758151563
 20
72.89487884841117
 30
0.0
 11
59.45638758151563
 21
74.78498128304386
 31
0.0
  0
LINE
  5
C3
330
1F
100
AcDbEntity
  8
0
  6
CONTINUOUS
 62
     7
100
AcDbLine
 10
59.45638758151563
 20
72.89487884841117
 30
0.0
 11
57.45638758151563
 21
72.89487884841117
 31
0.0
  0
LINE
  5
C4
330
1F
100
AcDbEntity
  8
0
  6
CONTINUOUS
 62
     7
100
AcDbLine
 10
60.95638758151563
 20
74.78498128304386
 30
0.0
 11
59.45638758151563
 21
74.78498128304386
 31
0.0
  0
LINE
  5
C5
330
1F
100
AcDbEntity
  8
0
  6
CONTINUOUS
 62
     7
100
AcDbLine
 10
64.75638758151558
 20
80.03498134560596
 30
0.0
 11
63.25638758151558
 21
80.03498134560596
 31
0.0
  0
LINE
  5
C6
330
1F
100
AcDbEntity
  8
0
  6
CONTINUOUS
 62
     7
100
AcDbLine
 10
64.75638758151558
 20
76.28498128304386
 30
0.0
 11
64.75638758151558
 21
74.78498128304386
 31
0.0
  0
LINE
  5
C7
330
1F
100
AcDbEntity
  8
0
  6
CONTINUOUS
 62
     7
100
AcDbLine
 10
66.75638758151558
 20
74.78498128313481
 30
0.0
 11
66.75638758151558
 21
80.03498134560596
 31
0.0
  0
LINE
  5
C8
330
1F
100
AcDbEntity
  8
0
  6
CONTINUOUS
 62
     7
100
AcDbLine
 10
64.75638758151558
 20
72.89487884841117
 30
0.0
 11
64.75638758151558
 21
74.78498128304386
 31
0.0
  0
LINE
  5
C9
330
1F
100
AcDbEntity
  8
0
  6
CONTINUOUS
 62
     7
100
AcDbLine
 10
66.75638758151558
 20
72.89487884841117
 30
0.0
 11
66.75638758151558
 21
74.78498128313481
 31
0.0
  0
LINE
  5
CA
330
1F
100
AcDbEntity
  8
0
  6
CONTINUOUS
 62
     7
100
AcDbLine
 10
66.75638758151558
 20
74.78498128313481
 30
0.0
 11
67.75638758151558
 21
74.78498128313481
 31
0.0
  0
LINE
  5
CB
330
1F
100
AcDbEntity
  8
0
  6
CONTINUOUS
 62
     7
100
AcDbLine
 10
66.75638758151558
 20
72.89487884841117
 30
0.0
 11
64.75638758151558
 21
72.89487884841117
 31
0.0
  0
LINE
  5
CC
330
1F
100
AcDbEntity
  8
0
  6
CONTINUOUS
 62
     7
100
AcDbLine
 10
64.75638758151558
 20
76.28498128304386
 30
0.0
 11
64.75638758151558
 21
80.03498134560596
 31
0.0
  0
LINE
  5
CD
330
1F
100
AcDbEntity
  8
0
  6
CONTINUOUS
 62
     7
100
AcDbLine
 10
67.60516107720264
 20
80.48498134560589
 30
0.0
 11
67.75638758151558
 21
80.48498134560589
 31
0.0
  0
LINE
  5
CE
330
1F
100
AcDbEntity
  8
0
  6
CONTINUOUS
 62
     7
100
AcDbLine
 10
67.75638758151558
 20
80.48498134560589
 30
0.0
 11
67.75638758151558
 21
80.03498134560596
 31
0.0
  0
LINE
  5
CF
330
1F
100
AcDbEntity
  8
0
  6
CONTINUOUS
 62
     7
100
AcDbLine
 10
67.75638758151558
 20
80.03498134560596
 30
0.0
 11
66.75638758151558
 21
80.03498134560596
 31
0.0
  0
LINE
  5
D0
330
1F
100
AcDbEntity
  8
0
  6
CONTINUOUS
 62
     7
100
AcDbLine
 10
67.75638758151558
 20
72.08498134580395
 30
0.0
 11
67.75638758151558
 21
74.78498128313481
 31
0.0
  0
LINE
  5
D1
330
1F
100
AcDbEntity
  8
0
  6
CONTINUOUS
 62
     7
100
AcDbLine
 10
17.50638755243153
 20
75.29835269976752
 30
0.0
 11
17.50638755243153
 21
79.11284517696538
 31
0.0
  0
LINE
  5
D2
330
1F
100
AcDbEntity
  8
0
  6
CONTINUOUS
 62
     7
100
AcDbLine
 10
15.60638755282776
 20
70.48498134560589
 30
0.0
 11
17.34251225956473
 21
74.50548066730732
 31
0.0
  0
LINE
  5
D3
330
1F
100
AcDbEntity
  8
0
  6
CONTINUOUS
 62
     7
100
AcDbLine
 10
-1.40361198085725
 20
126.0218078096818
 30
0.0
 11
-12.60361315634032
 21
126.0218078096818
 31
0.0
  0
LINE
  5
D4
330
1F
100
AcDbEntity
  8
0
  6
CONTINUOUS
 62
     7
100
AcDbLine
 10
1.59638801914275
 20
126.0218078096818
 30
0.0
 11
-1.40361198085725
 21
126.0218078096818
 31
0.0
  0
LINE
  5
D5
330
1F
100
AcDbEntity
  8
0
  6
CONTINUOUS
 62
     7
100
AcDbLine
 10
2.79638801914257
 20
126.0218078096818
 30
0.0
 11
1.59638801914275
 21
126.0218078096818
 31
0.0
  0
LINE
  5
D6
330
1F
100
AcDbEntity
  8
0
  6
CONTINUOUS
 62
     7
100
AcDbLine
 10
6.01699447602664
 20
126.0218078096818
 30
0.0
 11
2.79638801914257
 21
126.0218078096818
 31
0.0
  0
LINE
  5
D7
330
1F
100
AcDbEntity
  8
0
  6
CONTINUOUS
 62
     7
100
AcDbLine
 10
6.86552261345059
 20
126.0218078096818
 30
0.0
 11
6.01699447602664
 21
126.0218078096818
 31
0.0
  0
LINE
  5
D8
330
1F
100
AcDbEntity
  8
0
  6
CONTINUOUS
 62
     7
100
AcDbLine
 10
12.89638758151568
 20
126.0218078096818
 30
0.0
 11
6.86552261345059
 21
126.0218078096818
 31
0.0
  0
LINE
  5
D9
330
1F
100
AcDbEntity
  8
0
  6
CONTINUOUS
 62
     7
100
AcDbLine
 10
14.0963870903106
 20
126.0218078096818
 30
0.0
 11
12.89638758151568
 21
126.0218078096818
 31
0.0
  0
LINE
  5
DA
330
1F
100
AcDbEntity
  8
0
  6
CONTINUOUS
 62
     7
100
AcDbLine
 10
-10.10826609950141
 20
125.0218078096818
 30
0.0
 11
1.29638801914257
 21
125.0218078096818
 31
0.0
  0
LINE
  5
DB
330
1F
100
AcDbEntity
  8
0
  6
CONTINUOUS
 62
     7
100
AcDbLine
 10
-10.10826609950141
 20
125.0218078096818
 30
0.0
 11
-11.4568050601124
 21
125.0218078096818
 31
0.0
  0
LINE
  5
DC
330
1F
100
AcDbEntity
  8
0
  6
CONTINUOUS
 62
     7
100
AcDbLine
 10
7.07765464780664
 20
125.0218078096818
 30
0.0
 11
10.59638755282754
 21
125.0218078096818
 31
0.0
  0
LINE
  5
DD
330
1F
100
AcDbEntity
  8
0
  6
CONTINUOUS
 62
     7
100
AcDbLine
 10
2.79638801914257
 20
125.0218078096818
 30
0.0
 11
6.01699447602664
 21
125.0218078096818
 31
0.0
  0
LINE
  5
DE
330
1F
100
AcDbEntity
  8
0
  6
CONTINUOUS
 62
     7
100
AcDbLine
 10
6.01699447602664
 20
125.0218078096818
 30
0.0
 11
7.07765464780664
 21
125.0218078096818
 31
0.0
  0
LINE
  5
DF
330
1F
100
AcDbEntity
  8
0
  6
CONTINUOUS
 62
     7
100
AcDbLine
 10
10.59638755282754
 20
125.0218078096818
 30
0.0
 11
10.89997739131468
 21
125.0218078096818
 31
0.0
  0
LINE
  5
E0
330
1F
100
AcDbEntity
  8
0
  6
CONTINUOUS
 62
     7
100
AcDbLine
 10
1.29638801914257
 20
125.0218078096818
 30
0.0
 11
2.79638801914257
 21
125.0218078096818
 31
0.0
  0
LINE
  5
E1
330
1F
100
AcDbEntity
  8
0
  6
CONTINUOUS
 62
     7
100
AcDbLine
 10
-13.48946957563044
 20
125.0218078096818
 30
0.0
 11
-11.60361241848432
 21
125.0218078096818
 31
0.0
  0
LINE
  5
E2
330
1F
100
AcDbEntity
  8
0
  6
CONTINUOUS
 62
     7
100
AcDbLine
 10
-11.60361241848432
 20
125.0218078096818
 30
0.0
 11
-11.4568050601124
 21
125.0218078096818
 31
0.0
  0
LINE
  5
E3
330
1F
100
AcDbEntity
  8
0
  6
CONTINUOUS
 62
     7
100
AcDbLine
 10
-14.20361241848445
 20
125.1218078096819
 30
0.0
 11
11.24638755282763
 21
125.1218078096819
 31
0.0
  0
LINE
  5
E4
330
1F
100
AcDbEntity
  8
0
  6
CONTINUOUS
 62
     7
100
AcDbLine
 10
10.59638755282754
 20
125.0218078096818
 30
0.0
 11
10.59638755282754
 21
124.8218078096818
 31
0.0
  0
LINE
  5
E5
330
1F
100
AcDbEntity
  8
0
  6
CONTINUOUS
 62
     7
100
AcDbLine
 10
-11.60361241848432
 20
124.8218078096818
 30
0.0
 11
1.29638801914257
 21
124.8218078096818
 31
0.0
  0
LINE
  5
E6
330
1F
100
AcDbEntity
  8
0
  6
CONTINUOUS
 62
     7
100
AcDbLine
 10
1.29638801914257
 20
125.0218078096818
 30
0.0
 11
1.29638801914257
 21
124.8218078096818
 31
0.0
  0
LINE
  5
E7
330
1F
100
AcDbEntity
  8
0
  6
CONTINUOUS
 62
     7
100
AcDbLine
 10
-11.60361241848432
 20
125.0218078096818
 30
0.0
 11
-11.60361241848432
 21
124.8218078096818
 31
0.0
  0
LINE
  5
E8
330
1F
100
AcDbEntity
  8
0
  6
CONTINUOUS
 62
     7
100
AcDbLine
 10
14.19638758151564
 20
125.9218078096818
 30
0.0
 11
-12.70361266513646
 21
125.9218078096818
 31
0.0
  0
LINE
  5
E9
330
1F
100
AcDbEntity
  8
0
  6
CONTINUOUS
 62
     7
100
AcDbLine
 10
13.99638758151559
 20
141.0218078096818
 30
0.0
 11
14.0963870903106
 21
141.0218078096818
 31
0.0
  0
LINE
  5
EA
330
1F
100
AcDbEntity
  8
0
  6
CONTINUOUS
 62
     7
100
AcDbLine
 10
15.49638755282763
 20
134.6718078096819
 30
0.0
 11
15.49638755282763
 21
136.1718078096819
 31
0.0
  0
LINE
  5
EB
330
1F
100
AcDbEntity
  8
0
  6
CONTINUOUS
 62
     7
100
AcDbLine
 10
14.99638758151559
 20
138.1718078096818
 30
0.0
 11
14.99638758151559
 21
136.1718078096818
 31
0.0
  0
LINE
  5
EC
330
1F
100
AcDbEntity
  8
0
  6
CONTINUOUS
 62
     7
100
AcDbLine
 10
14.99638758151559
 20
139.1718078096818
 30
0.0
 11
14.99638758151559
 21
138.1718078096818
 31
0.0
  0
LINE
  5
ED
330
1F
100
AcDbEntity
  8
0
  6
CONTINUOUS
 62
     7
100
AcDbLine
 10
14.99638758151559
 20
136.1718078096818
 30
0.0
 11
14.99638758151559
 21
134.6718078096818
 31
0.0
  0
LINE
  5
EE
330
1F
100
AcDbEntity
  8
0
  6
CONTINUOUS
 62
     7
100
AcDbLine
 10
15.11182725428876
 20
139.1718078096818
 30
0.0
 11
15.11182722731564
 21
140.2718078096818
 31
0.0
  0
LINE
  5
EF
330
1F
100
AcDbEntity
  8
0
  6
CONTINUOUS
 62
     7
100
AcDbLine
 10
15.49638755282763
 20
134.6718078096819
 30
0.0
 11
14.99638758151559
 21
134.6718078096818
 31
0.0
  0
LINE
  5
F0
330
1F
100
AcDbEntity
  8
0
  6
CONTINUOUS
 62
     7
100
AcDbLine
 10
14.99638758151559
 20
134.6718078096818
 30
0.0
 11
14.99638758151559
 21
132.3718078096819
 31
0.0
  0
LINE
  5
F1
330
1F
100
AcDbEntity
  8
0
  6
CONTINUOUS
 62
     7
100
AcDbLine
 10
15.59638755282754
 20
126.3718078096819
 30
0.0
 11
15.49638741669969
 21
126.3718078096819
 31
0.0
  0
LINE
  5
F2
330
1F
100
AcDbEntity
  8
0
  6
CONTINUOUS
 62
     7
100
AcDbLine
 10
14.99638758151559
 20
128.8718078096819
 30
0.0
 11
14.99638758151559
 21
127.8718078096819
 31
0.0
  0
LINE
  5
F3
330
1F
100
AcDbEntity
  8
0
  6
CONTINUOUS
 62
     7
100
AcDbLine
 10
15.11182725428876
 20
127.8718078096819
 30
0.0
 11
15.11182722938474
 21
126.7718078096818
 31
0.0
  0
LINE
  5
F4
330
1F
100
AcDbEntity
  8
0
  6
CONTINUOUS
 62
     7
100
AcDbLine
 10
14.99638758151559
 20
132.3718078096819
 30
0.0
 11
14.99638758151559
 21
130.8718078096819
 31
0.0
  0
LINE
  5
F5
330
1F
100
AcDbEntity
  8
0
  6
CONTINUOUS
 62
     7
100
AcDbLine
 10
15.49638755282763
 20
130.8718078096816
 30
0.0
 11
15.49638755282763
 21
132.3718078096816
 31
0.0
  0
LINE
  5
F6
330
1F
100
AcDbEntity
  8
0
  6
CONTINUOUS
 62
     7
100
AcDbLine
 10
15.49638755282763
 20
130.8718078096816
 30
0.0
 11
14.99638758151559
 21
130.8718078096819
 31
0.0
  0
LINE
  5
F7
330
1F
100
AcDbEntity
  8
0
  6
CONTINUOUS
 62
     7
100
AcDbLine
 10
14.99638758151559
 20
130.8718078096819
 30
0.0
 11
14.99638758151559
 21
128.8718078096819
 31
0.0
  0
LINE
  5
F8
330
1F
100
AcDbEntity
  8
0
  6
CONTINUOUS
 62
     7
100
AcDbLine
 10
17.49638755224555
 20
134.6718078096818
 30
0.0
 11
17.49638755224555
 21
132.3718078096816
 31
0.0
  0
LINE
  5
F9
330
1F
100
AcDbEntity
  8
0
  6
CONTINUOUS
 62
     7
100
AcDbLine
 10
17.49638755224555
 20
138.1718078096818
 30
0.0
 11
17.49638755224555
 21
136.1718078096819
 31
0.0
  0
LINE
  5
FA
330
1F
100
AcDbEntity
  8
0
  6
CONTINUOUS
 62
     7
100
AcDbLine
 10
17.49638755224555
 20
130.8718078096816
 30
0.0
 11
17.49638755224555
 21
128.8718078096819
 31
0.0
  0
LINE
  5
FB
330
1F
100
AcDbEntity
  8
0
  6
CONTINUOUS
 62
     7
100
AcDbLine
 10
17.49638755224555
 20
136.1718078096819
 30
0.0
 11
15.49638755282763
 21
136.1718078096819
 31
0.0
  0
LINE
  5
FC
330
1F
100
AcDbEntity
  8
0
  6
CONTINUOUS
 62
     7
100
AcDbLine
 10
16.20093300733265
 20
128.8718078096819
 30
0.0
 11
16.20093300733265
 21
128.0718078096818
 31
0.0
  0
LINE
  5
FD
330
1F
100
AcDbEntity
  8
0
  6
CONTINUOUS
 62
     7
100
AcDbLine
 10
16.20093300733265
 20
132.3718078096819
 30
0.0
 11
16.20093300733265
 21
130.8718078096819
 31
0.0
  0
LINE
  5
FE
330
1F
100
AcDbEntity
  8
0
  6
CONTINUOUS
 62
     7
100
AcDbLine
 10
16.20093300733265
 20
138.9718078096818
 30
0.0
 11
16.20093300733265
 21
138.1718078096818
 31
0.0
  0
LINE
  5
FF
330
1F
100
AcDbEntity
  8
0
  6
CONTINUOUS
 62
     7
100
AcDbLine
 10
16.20093300733265
 20
136.1718078096818
 30
0.0
 11
16.20093300733265
 21
134.6718078096818
 31
0.0
  0
LINE
  5
100
330
1F
100
AcDbEntity
  8
0
  6
CONTINUOUS
 62
     7
100
AcDbLine
 10
17.49638755224555
 20
134.6718078096818
 30
0.0
 11
15.49638755282763
 21
134.6718078096819
 31
0.0
  0
LINE
  5
101
330
1F
100
AcDbEntity
  8
0
  6
CONTINUOUS
 62
     7
100
AcDbLine
 10
17.49638755224555
 20
128.8718078096819
 30
0.0
 11
14.99638758151559
 21
128.8718078096819
 31
0.0
  0
LINE
  5
102
330
1F
100
AcDbEntity
  8
0
  6
CONTINUOUS
 62
     7
100
AcDbLine
 10
16.21192930523171
 20
126.3718078096819
 30
0.0
 11
16.29638755243173
 21
126.3718078096819
 31
0.0
  0
LINE
  5
103
330
1F
100
AcDbEntity
  8
0
  6
CONTINUOUS
 62
     7
100
AcDbLine
 10
15.59750762057774
 20
126.3718078096819
 30
0.0
 11
16.21192930523171
 21
126.3718078096819
 31
0.0
  0
LINE
  5
104
330
1F
100
AcDbEntity
  8
0
  6
CONTINUOUS
 62
     7
100
AcDbLine
 10
15.49638755282763
 20
132.3718078096816
 30
0.0
 11
14.99638758151559
 21
132.3718078096819
 31
0.0
  0
LINE
  5
105
330
1F
100
AcDbEntity
  8
0
  6
CONTINUOUS
 62
     7
100
AcDbLine
 10
17.49638755224555
 20
132.3718078096816
 30
0.0
 11
15.49638755282763
 21
132.3718078096816
 31
0.0
  0
LINE
  5
106
330
1F
100
AcDbEntity
  8
0
  6
CONTINUOUS
 62
     7
100
AcDbLine
 10
17.49638755224555
 20
130.8718078096816
 30
0.0
 11
15.49638755282763
 21
130.8718078096816
 31
0.0
  0
LINE
  5
107
330
1F
100
AcDbEntity
  8
0
  6
CONTINUOUS
 62
     7
100
AcDbLine
 10
17.49638755243154
 20
127.5718078096818
 30
0.0
 11
17.49638755243154
 21
127.8718078096819
 31
0.0
  0
LINE
  5
108
330
1F
100
AcDbEntity
  8
0
  6
CONTINUOUS
 62
     7
100
AcDbLine
 10
16.19184204132466
 20
127.8718078096819
 30
0.0
 11
15.11182725428876
 21
127.8718078096819
 31
0.0
  0
LINE
  5
109
330
1F
100
AcDbEntity
  8
0
  6
CONTINUOUS
 62
     7
100
AcDbLine
 10
16.61255000701362
 20
127.8718078096819
 30
0.0
 11
16.2872966436787
 21
127.8718078096819
 31
0.0
  0
LINE
  5
10A
330
1F
100
AcDbEntity
  8
0
  6
CONTINUOUS
 62
     7
100
AcDbLine
 10
16.2872966436787
 20
127.8718078096819
 30
0.0
 11
16.19184204132466
 21
127.8718078096819
 31
0.0
  0
LINE
  5
10B
330
1F
100
AcDbEntity
  8
0
  6
CONTINUOUS
 62
     7
100
AcDbLine
 10
14.99638758151559
 20
127.8718078096819
 30
0.0
 11
15.11182725428876
 21
127.8718078096819
 31
0.0
  0
LINE
  5
10C
330
1F
100
AcDbEntity
  8
0
  6
CONTINUOUS
 62
     7
100
AcDbLine
 10
16.61255000701362
 20
127.8718078096819
 30
0.0
 11
17.49638755243154
 21
127.8718078096819
 31
0.0
  0
LINE
  5
10D
330
1F
100
AcDbEntity
  8
0
  6
CONTINUOUS
 62
     7
100
AcDbLine
 10
14.99638758151559
 20
127.8718078096819
 30
0.0
 11
14.99638758151559
 21
126.721807809682
 31
0.0
  0
LINE
  5
10E
330
1F
100
AcDbEntity
  8
0
  6
CONTINUOUS
 62
     7
100
AcDbLine
 10
15.49638755282763
 20
136.1718078096819
 30
0.0
 11
14.99638758151559
 21
136.1718078096818
 31
0.0
  0
LINE
  5
10F
330
1F
100
AcDbEntity
  8
0
  6
CONTINUOUS
 62
     7
100
AcDbLine
 10
17.49638755224555
 20
138.1718078096818
 30
0.0
 11
14.99638758151559
 21
138.1718078096818
 31
0.0
  0
LINE
  5
110
330
1F
100
AcDbEntity
  8
0
  6
CONTINUOUS
 62
     7
100
AcDbLine
 10
14.99638758151559
 20
140.3218078096818
 30
0.0
 11
14.99638758151559
 21
139.1718078096818
 31
0.0
  0
LINE
  5
111
330
1F
100
AcDbEntity
  8
0
  6
CONTINUOUS
 62
     7
100
AcDbLine
 10
16.65752316602766
 20
139.1718078096818
 30
0.0
 11
16.2872966436787
 21
139.1718078096818
 31
0.0
  0
LINE
  5
112
330
1F
100
AcDbEntity
  8
0
  6
CONTINUOUS
 62
     7
100
AcDbLine
 10
16.2872966436787
 20
139.1718078096818
 30
0.0
 11
16.25168975662768
 21
139.1718078096818
 31
0.0
  0
LINE
  5
113
330
1F
100
AcDbEntity
  8
0
  6
CONTINUOUS
 62
     7
100
AcDbLine
 10
16.25168975662768
 20
139.1718078096818
 30
0.0
 11
15.11182725428876
 21
139.1718078096818
 31
0.0
  0
LINE
  5
114
330
1F
100
AcDbEntity
  8
0
  6
CONTINUOUS
 62
     7
100
AcDbLine
 10
14.99638758151559
 20
139.1718078096818
 30
0.0
 11
15.11182725428876
 21
139.1718078096818
 31
0.0
  0
LINE
  5
115
330
1F
100
AcDbEntity
  8
0
  6
CONTINUOUS
 62
     7
100
AcDbLine
 10
16.29638755243173
 20
140.6718078096818
 30
0.0
 11
16.21900955591559
 21
140.6718078096818
 31
0.0
  0
LINE
  5
116
330
1F
100
AcDbEntity
  8
0
  6
CONTINUOUS
 62
     7
100
AcDbLine
 10
16.21900955591559
 20
140.6718078096818
 30
0.0
 11
15.61953740450258
 21
140.6718078096818
 31
0.0
  0
LINE
  5
117
330
1F
100
AcDbEntity
  8
0
  6
CONTINUOUS
 62
     7
100
AcDbLine
 10
15.49638741193758
 20
140.6718078096818
 30
0.0
 11
15.59638755282754
 21
140.6718078096818
 31
0.0
  0
LINE
  5
118
330
1F
100
AcDbEntity
  8
0
  6
CONTINUOUS
 62
     7
100
AcDbLine
 10
15.59638755282754
 20
140.6718078096818
 30
0.0
 11
15.61953740450258
 21
140.6718078096818
 31
0.0
  0
LINE
  5
119
330
1F
100
AcDbEntity
  8
0
  6
CONTINUOUS
 62
     7
100
AcDbLine
 10
17.49638755243154
 20
139.1718078096818
 30
0.0
 11
16.65752316602766
 21
139.1718078096818
 31
0.0
  0
LINE
  5
11A
330
1F
100
AcDbEntity
  8
0
  6
CONTINUOUS
 62
     7
100
AcDbLine
 10
17.49638755243154
 20
139.4718078096818
 30
0.0
 11
17.49638755243154
 21
139.1718078096818
 31
0.0
  0
LINE
  5
11B
330
1F
100
AcDbEntity
  8
0
  6
CONTINUOUS
 62
     7
100
AcDbLine
 10
15.59638755282754
 20
126.3718078096819
 30
0.0
 11
15.59638755282754
 21
124.8218078096818
 31
0.0
  0
LINE
  5
11C
330
1F
100
AcDbEntity
  8
0
  6
CONTINUOUS
 62
     7
100
AcDbLine
 10
15.59638755282754
 20
140.6718078096818
 30
0.0
 11
15.59638755282754
 21
142.2218078096818
 31
0.0
  0
LINE
  5
11D
330
1F
100
AcDbEntity
  8
0
  6
CONTINUOUS
 62
     7
100
AcDbLine
 10
-17.20361241848445
 20
135.9718078096818
 30
0.0
 11
-17.20361241848445
 21
135.9697661426606
 31
0.0
  0
LINE
  5
11E
330
1F
100
AcDbEntity
  8
0
  6
CONTINUOUS
 62
     7
100
AcDbLine
 10
-17.20361241848445
 20
131.0738494767031
 30
0.0
 11
-17.20361241848445
 21
131.0718078096818
 31
0.0
  0
LINE
  5
11F
330
1F
100
AcDbEntity
  8
0
  6
CONTINUOUS
 62
     7
100
AcDbLine
 10
-17.20361241848445
 20
135.9697661426606
 30
0.0
 11
-17.20361241848445
 21
131.0738494767031
 31
0.0
  0
LINE
  5
120
330
1F
100
AcDbEntity
  8
0
  6
CONTINUOUS
 62
     7
100
AcDbLine
 10
-11.60361241848432
 20
124.8218078096818
 30
0.0
 11
-17.20361241848445
 21
124.8218078096818
 31
0.0
  0
LINE
  5
121
330
1F
100
AcDbEntity
  8
0
  6
CONTINUOUS
 62
     7
100
AcDbLine
 10
-17.20361241848445
 20
131.0718078096818
 30
0.0
 11
-17.20361241848445
 21
124.8218078096818
 31
0.0
  0
LINE
  5
122
330
1F
100
AcDbEntity
  8
0
  6
CONTINUOUS
 62
     7
100
AcDbLine
 10
-11.60361241848432
 20
142.2218078096818
 30
0.0
 11
-11.60361241848432
 21
142.0218078096818
 31
0.0
  0
LINE
  5
123
330
1F
100
AcDbEntity
  8
0
  6
CONTINUOUS
 62
     7
100
AcDbLine
 10
-11.60361241848432
 20
142.0218078096818
 30
0.0
 11
-11.4568050601124
 21
142.0218078096818
 31
0.0
  0
LINE
  5
124
330
1F
100
AcDbEntity
  8
0
  6
CONTINUOUS
 62
     7
100
AcDbLine
 10
-13.50361266513642
 20
126.7218078096818
 30
0.0
 11
-13.50361266513642
 21
140.3218078096818
 31
0.0
  0
LINE
  5
125
330
1F
100
AcDbEntity
  8
0
  6
CONTINUOUS
 62
     7
100
AcDbLine
 10
-10.10826609950141
 20
142.0218078096818
 30
0.0
 11
-11.4568050601124
 21
142.0218078096818
 31
0.0
  0
LINE
  5
126
330
1F
100
AcDbEntity
  8
0
  6
CONTINUOUS
 62
     7
100
AcDbLine
 10
-13.48946957563044
 20
142.0218078096818
 30
0.0
 11
-11.60361241848432
 21
142.0218078096818
 31
0.0
  0
LINE
  5
127
330
1F
100
AcDbEntity
  8
0
  6
CONTINUOUS
 62
     7
100
AcDbLine
 10
-11.60361241848432
 20
142.2218078096818
 30
0.0
 11
-17.20361241848445
 21
142.2218078096818
 31
0.0
  0
LINE
  5
128
330
1F
100
AcDbEntity
  8
0
  6
CONTINUOUS
 62
     7
100
AcDbLine
 10
-12.60361315634032
 20
141.0218078096818
 30
0.0
 11
-11.20361241848445
 21
141.0218078096818
 31
0.0
  0
LINE
  5
129
330
1F
100
AcDbEntity
  8
0
  6
CONTINUOUS
 62
     7
100
AcDbLine
 10
-11.20361241848445
 20
141.0218078096818
 30
0.0
 11
-8.40361241845926
 21
141.0218078096818
 31
0.0
  0
LINE
  5
12A
330
1F
100
AcDbEntity
  8
0
  6
CONTINUOUS
 62
     7
100
AcDbLine
 10
12.29638758151555
 20
141.0218078096818
 30
0.0
 11
12.93638712782558
 21
141.0218078096818
 31
0.0
  0
LINE
  5
12B
330
1F
100
AcDbEntity
  8
0
  6
CONTINUOUS
 62
     7
100
AcDbLine
 10
10.59638755282754
 20
124.8218078096818
 30
0.0
 11
15.59638755282754
 21
124.8218078096818
 31
0.0
  0
LINE
  5
12C
330
1F
100
AcDbEntity
  8
0
  6
CONTINUOUS
 62
     7
100
AcDbLine
 10
12.93638712782558
 20
141.0218078096818
 30
0.0
 11
13.99638758151559
 21
141.0218078096818
 31
0.0
  0
LINE
  5
12D
330
1F
100
AcDbEntity
  8
0
  6
CONTINUOUS
 62
     7
100
AcDbLine
 10
6.86552261345059
 20
141.0218078096818
 30
0.0
 11
12.29638758151555
 21
141.0218078096818
 31
0.0
  0
LINE
  5
12E
330
1F
100
AcDbEntity
  8
0
  6
CONTINUOUS
 62
     7
100
AcDbLine
 10
6.01699447602664
 20
141.0218078096818
 30
0.0
 11
6.86552261345059
 21
141.0218078096818
 31
0.0
  0
LINE
  5
12F
330
1F
100
AcDbEntity
  8
0
  6
CONTINUOUS
 62
     7
100
AcDbLine
 10
2.79638801914257
 20
141.0218078096818
 30
0.0
 11
6.01699447602664
 21
141.0218078096818
 31
0.0
  0
LINE
  5
130
330
1F
100
AcDbEntity
  8
0
  6
CONTINUOUS
 62
     7
100
AcDbLine
 10
-1.40361198085725
 20
141.0218078096818
 30
0.0
 11
1.59638801914275
 21
141.0218078096818
 31
0.0
  0
LINE
  5
131
330
1F
100
AcDbEntity
  8
0
  6
CONTINUOUS
 62
     7
100
AcDbLine
 10
1.59638801914275
 20
141.0218078096818
 30
0.0
 11
2.79638801914257
 21
141.0218078096818
 31
0.0
  0
LINE
  5
132
330
1F
100
AcDbEntity
  8
0
  6
CONTINUOUS
 62
     7
100
AcDbLine
 10
-8.40361241845926
 20
141.0218078096818
 30
0.0
 11
-1.40361198085725
 21
141.0218078096818
 31
0.0
  0
LINE
  5
133
330
1F
100
AcDbEntity
  8
0
  6
CONTINUOUS
 62
     7
100
AcDbLine
 10
-14.20361241848445
 20
141.9218078096818
 30
0.0
 11
11.24638755282763
 21
141.9218078096818
 31
0.0
  0
LINE
  5
134
330
1F
100
AcDbEntity
  8
0
  6
CONTINUOUS
 62
     7
100
AcDbLine
 10
1.29638801914257
 20
142.0218078096818
 30
0.0
 11
-10.10826609950141
 21
142.0218078096818
 31
0.0
  0
LINE
  5
135
330
1F
100
AcDbEntity
  8
0
  6
CONTINUOUS
 62
     7
100
AcDbLine
 10
6.01699447602664
 20
142.0218078096818
 30
0.0
 11
2.79638801914257
 21
142.0218078096818
 31
0.0
  0
LINE
  5
136
330
1F
100
AcDbEntity
  8
0
  6
CONTINUOUS
 62
     7
100
AcDbLine
 10
10.59638755282754
 20
142.0218078096818
 30
0.0
 11
7.07765464780664
 21
142.0218078096818
 31
0.0
  0
LINE
  5
137
330
1F
100
AcDbEntity
  8
0
  6
CONTINUOUS
 62
     7
100
AcDbLine
 10
7.07765464780664
 20
142.0218078096818
 30
0.0
 11
6.01699447602664
 21
142.0218078096818
 31
0.0
  0
LINE
  5
138
330
1F
100
AcDbEntity
  8
0
  6
CONTINUOUS
 62
     7
100
AcDbLine
 10
10.89997739131468
 20
142.0218078096818
 30
0.0
 11
10.59638755282754
 21
142.0218078096818
 31
0.0
  0
LINE
  5
139
330
1F
100
AcDbEntity
  8
0
  6
CONTINUOUS
 62
     7
100
AcDbLine
 10
2.79638801914257
 20
142.0218078096818
 30
0.0
 11
1.29638801914257
 21
142.0218078096818
 31
0.0
  0
LINE
  5
13A
330
1F
100
AcDbEntity
  8
0
  6
CONTINUOUS
 62
     7
100
AcDbLine
 10
-17.20361241848445
 20
142.2218078096818
 30
0.0
 11
-17.20361241848445
 21
135.9718078096818
 31
0.0
  0
LINE
  5
13B
330
1F
100
AcDbEntity
  8
0
  6
CONTINUOUS
 62
     7
100
AcDbLine
 10
1.29638801914257
 20
142.0218078096818
 30
0.0
 11
1.29638801914257
 21
142.2218078096818
 31
0.0
  0
LINE
  5
13C
330
1F
100
AcDbEntity
  8
0
  6
CONTINUOUS
 62
     7
100
AcDbLine
 10
-11.60361241848432
 20
142.2218078096818
 30
0.0
 11
1.29638801914257
 21
142.2218078096818
 31
0.0
  0
LINE
  5
13D
330
1F
100
AcDbEntity
  8
0
  6
CONTINUOUS
 62
     7
100
AcDbLine
 10
10.59638755282754
 20
142.2218078096818
 30
0.0
 11
10.59638755282754
 21
142.0218078096818
 31
0.0
  0
LINE
  5
13E
330
1F
100
AcDbEntity
  8
0
  6
CONTINUOUS
 62
     7
100
AcDbLine
 10
-12.70361266513646
 20
141.1218078096819
 30
0.0
 11
14.19638758151564
 21
141.1218078096819
 31
0.0
  0
LINE
  5
13F
330
1F
100
AcDbEntity
  8
0
  6
CONTINUOUS
 62
     7
100
AcDbLine
 10
10.59638755282754
 20
142.2218078096818
 30
0.0
 11
15.59638755282754
 21
142.2218078096818
 31
0.0
  0
LINE
  5
140
330
1F
100
AcDbEntity
  8
0
  6
CONTINUOUS
 62
     7
100
AcDbLine
 10
-11.60361241848432
 20
142.0218078096818
 30
0.0
 11
-11.4568050601124
 21
142.0218078096818
 31
0.0
  0
LINE
  5
141
330
1F
100
AcDbEntity
  8
0
  6
CONTINUOUS
 62
     7
100
AcDbLine
 10
-10.10826609950141
 20
142.0218078096818
 30
0.0
 11
-11.4568050601124
 21
142.0218078096818
 31
0.0
  0
LINE
  5
142
330
1F
100
AcDbEntity
  8
0
  6
CONTINUOUS
 62
     7
100
AcDbLine
 10
-13.48946957563044
 20
142.0218078096818
 30
0.0
 11
-11.60361241848432
 21
142.0218078096818
 31
0.0
  0
LINE
  5
143
330
1F
100
AcDbEntity
  8
0
  6
CONTINUOUS
 62
     7
100
AcDbLine
 10
1.29638801914257
 20
142.0218078096818
 30
0.0
 11
-10.10826609950141
 21
142.0218078096818
 31
0.0
  0
LINE
  5
144
330
1F
100
AcDbEntity
  8
0
  6
CONTINUOUS
 62
     7
100
AcDbLine
 10
6.01699447602664
 20
142.0218078096818
 30
0.0
 11
2.79638801914257
 21
142.0218078096818
 31
0.0
  0
LINE
  5
145
330
1F
100
AcDbEntity
  8
0
  6
CONTINUOUS
 62
     7
100
AcDbLine
 10
10.59638755282754
 20
142.0218078096818
 30
0.0
 11
7.07765464780664
 21
142.0218078096818
 31
0.0
  0
LINE
  5
146
330
1F
100
AcDbEntity
  8
0
  6
CONTINUOUS
 62
     7
100
AcDbLine
 10
7.07765464780664
 20
142.0218078096818
 30
0.0
 11
6.01699447602664
 21
142.0218078096818
 31
0.0
  0
LINE
  5
147
330
1F
100
AcDbEntity
  8
0
  6
CONTINUOUS
 62
     7
100
AcDbLine
 10
10.89997739131468
 20
142.0218078096818
 30
0.0
 11
10.59638755282754
 21
142.0218078096818
 31
0.0
  0
LINE
  5
148
330
1F
100
AcDbEntity
  8
0
  6
CONTINUOUS
 62
     7
100
AcDbLine
 10
2.79638801914257
 20
142.0218078096818
 30
0.0
 11
1.29638801914257
 21
142.0218078096818
 31
0.0
  0
LINE
  5
149
330
1F
100
AcDbEntity
  8
0
  6
CONTINUOUS
 62
     7
100
AcDbLine
 10
-17.21361241848445
 20
126.0218078096818
 30
0.0
 11
-17.20361241848445
 21
126.0218078096818
 31
0.0
  0
LINE
  5
14A
330
1F
100
AcDbEntity
  8
0
  6
CONTINUOUS
 62
     7
100
AcDbLine
 10
-17.20361241848445
 20
135.9718078096818
 30
0.0
 11
-17.20361241848445
 21
135.9697661426606
 31
0.0
  0
LINE
  5
14B
330
1F
100
AcDbEntity
  8
0
  6
CONTINUOUS
 62
     7
100
AcDbLine
 10
-17.20361241848445
 20
131.0738494767031
 30
0.0
 11
-17.20361241848445
 21
131.0718078096818
 31
0.0
  0
LINE
  5
14C
330
1F
100
AcDbEntity
  8
0
  6
CONTINUOUS
 62
     7
100
AcDbLine
 10
-17.21361241848445
 20
141.0218078096818
 30
0.0
 11
-17.20361241848445
 21
141.0218078096818
 31
0.0
  0
LINE
  5
14D
330
1F
100
AcDbEntity
  8
0
  6
CONTINUOUS
 62
     7
100
AcDbLine
 10
-17.21361241848445
 20
141.0218078096818
 30
0.0
 11
-17.21361241848445
 21
126.0218078096818
 31
0.0
  0
LINE
  5
14E
330
1F
100
AcDbEntity
  8
0
  6
CONTINUOUS
 62
     7
100
AcDbLine
 10
-1.40361198085725
 20
126.0218078096818
 30
0.0
 11
-12.60361315634032
 21
126.0218078096818
 31
0.0
  0
LINE
  5
14F
330
1F
100
AcDbEntity
  8
0
  6
CONTINUOUS
 62
     7
100
AcDbLine
 10
1.59638801914275
 20
126.0218078096818
 30
0.0
 11
-1.40361198085725
 21
126.0218078096818
 31
0.0
  0
LINE
  5
150
330
1F
100
AcDbEntity
  8
0
  6
CONTINUOUS
 62
     7
100
AcDbLine
 10
2.79638801914257
 20
126.0218078096818
 30
0.0
 11
1.59638801914275
 21
126.0218078096818
 31
0.0
  0
LINE
  5
151
330
1F
100
AcDbEntity
  8
0
  6
CONTINUOUS
 62
     7
100
AcDbLine
 10
6.01699447602664
 20
126.0218078096818
 30
0.0
 11
2.79638801914257
 21
126.0218078096818
 31
0.0
  0
LINE
  5
152
330
1F
100
AcDbEntity
  8
0
  6
CONTINUOUS
 62
     7
100
AcDbLine
 10
6.86552261345059
 20
126.0218078096818
 30
0.0
 11
6.01699447602664
 21
126.0218078096818
 31
0.0
  0
LINE
  5
153
330
1F
100
AcDbEntity
  8
0
  6
CONTINUOUS
 62
     7
100
AcDbLine
 10
12.89638758151568
 20
126.0218078096818
 30
0.0
 11
6.86552261345059
 21
126.0218078096818
 31
0.0
  0
LINE
  5
154
330
1F
100
AcDbEntity
  8
0
  6
CONTINUOUS
 62
     7
100
AcDbLine
 10
14.0963870903106
 20
126.0218078096818
 30
0.0
 11
12.89638758151568
 21
126.0218078096818
 31
0.0
  0
LINE
  5
155
330
1F
100
AcDbEntity
  8
0
  6
CONTINUOUS
 62
     7
100
AcDbLine
 10
-10.10361315634032
 20
127.7218078096818
 30
0.0
 11
-8.55361290968835
 21
127.7218078096818
 31
0.0
  0
LINE
  5
156
330
1F
100
AcDbEntity
  8
0
  6
CONTINUOUS
 62
     7
100
AcDbLine
 10
-8.55361290968835
 20
128.0218078096817
 30
0.0
 11
-10.05361290968835
 21
128.0218078096817
 31
0.0
  0
LINE
  5
157
330
1F
100
AcDbEntity
  8
0
  6
CONTINUOUS
 62
     7
100
AcDbLine
 10
14.89638709031055
 20
140.2218078096818
 30
0.0
 11
14.89638709031055
 21
126.8218078096818
 31
0.0
  0
LINE
  5
158
330
1F
100
AcDbEntity
  8
0
  6
CONTINUOUS
 62
     7
100
AcDbLine
 10
13.99638758151559
 20
141.0218078096818
 30
0.0
 11
14.0963870903106
 21
141.0218078096818
 31
0.0
  0
LINE
  5
159
330
1F
100
AcDbEntity
  8
0
  6
CONTINUOUS
 62
     7
100
AcDbLine
 10
-13.40361315634027
 20
126.8218078096818
 30
0.0
 11
-13.40361315634027
 21
140.2218078096818
 31
0.0
  0
LINE
  5
15A
330
1F
100
AcDbEntity
  8
0
  6
CONTINUOUS
 62
     7
100
AcDbLine
 10
-11.70361315634045
 20
137.7218078096818
 30
0.0
 11
-11.70361315634045
 21
129.3218078096818
 31
0.0
  0
LINE
  5
15B
330
1F
100
AcDbEntity
  8
0
  6
CONTINUOUS
 62
     7
100
AcDbLine
 10
-12.60361315634032
 20
141.0218078096818
 30
0.0
 11
-11.20361241848445
 21
141.0218078096818
 31
0.0
  0
LINE
  5
15C
330
1F
100
AcDbEntity
  8
0
  6
CONTINUOUS
 62
     7
100
AcDbLine
 10
-11.20361241848445
 20
141.0218078096818
 30
0.0
 11
-8.40361241845926
 21
141.0218078096818
 31
0.0
  0
LINE
  5
15D
330
1F
100
AcDbEntity
  8
0
  6
CONTINUOUS
 62
     7
100
AcDbLine
 10
-11.35361290968831
 20
133.8218078096818
 30
0.0
 11
-11.35361290968831
 21
137.7218078096818
 31
0.0
  0
LINE
  5
15E
330
1F
100
AcDbEntity
  8
0
  6
CONTINUOUS
 62
     7
100
AcDbLine
 10
-11.35361290968831
 20
133.2218078096818
 30
0.0
 11
-11.35361290968831
 21
133.8218078096818
 31
0.0
  0
LINE
  5
15F
330
1F
100
AcDbEntity
  8
0
  6
CONTINUOUS
 62
     7
100
AcDbLine
 10
-7.2536129096884
 20
133.8218078096818
 30
0.0
 11
-7.2536129096884
 21
137.7218078096818
 31
0.0
  0
LINE
  5
160
330
1F
100
AcDbEntity
  8
0
  6
CONTINUOUS
 62
     7
100
AcDbLine
 10
-7.2536129096884
 20
133.2218078096818
 30
0.0
 11
-7.2536129096884
 21
133.8218078096818
 31
0.0
  0
LINE
  5
161
330
1F
100
AcDbEntity
  8
0
  6
CONTINUOUS
 62
     7
100
AcDbLine
 10
-11.35361290968831
 20
133.2218078096818
 30
0.0
 11
-7.2536129096884
 21
133.2218078096818
 31
0.0
  0
LINE
  5
162
330
1F
100
AcDbEntity
  8
0
  6
CONTINUOUS
 62
     7
100
AcDbLine
 10
-11.35361290968831
 20
133.8218078096818
 30
0.0
 11
-7.2536129096884
 21
133.8218078096818
 31
0.0
  0
LINE
  5
163
330
1F
100
AcDbEntity
  8
0
  6
CONTINUOUS
 62
     7
100
AcDbLine
 10
-10.05361290968835
 20
139.0218078096818
 30
0.0
 11
-8.55361290968835
 21
139.0218078096818
 31
0.0
  0
LINE
  5
164
330
1F
100
AcDbEntity
  8
0
  6
CONTINUOUS
 62
     7
100
AcDbLine
 10
-8.55361290968835
 20
139.3218078096818
 30
0.0
 11
-10.10361315634032
 21
139.3218078096818
 31
0.0
  0
LINE
  5
165
330
1F
100
AcDbEntity
  8
0
  6
CONTINUOUS
 62
     7
100
AcDbLine
 10
-11.35361290968831
 20
129.3218078096818
 30
0.0
 11
-11.35361290968831
 21
133.2218078096818
 31
0.0
  0
LINE
  5
166
330
1F
100
AcDbEntity
  8
0
  6
CONTINUOUS
 62
     7
100
AcDbLine
 10
-6.95361290968845
 20
137.7218078096818
 30
0.0
 11
-6.95361290968845
 21
136.7218078096819
 31
0.0
  0
LINE
  5
167
330
1F
100
AcDbEntity
  8
0
  6
CONTINUOUS
 62
     7
100
AcDbLine
 10
-7.2536129096884
 20
129.3218078096818
 30
0.0
 11
-7.2536129096884
 21
133.2218078096818
 31
0.0
  0
LINE
  5
168
330
1F
100
AcDbEntity
  8
0
  6
DOTTED
 62
     7
100
AcDbLine
 10
-6.41648087533235
 20
131.2339398440378
 30
0.0
 11
-5.92861290968835
 21
131.7218078096818
 31
0.0
  0
LINE
  5
169
330
1F
100
AcDbEntity
  8
0
  6
DOTTED
 62
     7
100
AcDbLine
 10
-6.52861290968826
 20
131.3460718783937
 30
0.0
 11
-6.41648087533235
 21
131.2339398440378
 31
0.0
  0
LINE
  5
16A
330
1F
100
AcDbEntity
  8
0
  6
DOTTED
 62
     7
100
AcDbLine
 10
-6.1043488409764
 20
130.9218078096818
 30
0.0
 11
-3.75287697840031
 21
130.9218078096818
 31
0.0
  0
LINE
  5
16B
330
1F
100
AcDbEntity
  8
0
  6
DOTTED
 62
     7
100
AcDbLine
 10
-3.6407449440444
 20
131.0339398440377
 30
0.0
 11
-4.1286129096884
 21
131.5218078096818
 31
0.0
  0
LINE
  5
16C
330
1F
100
AcDbEntity
  8
0
  6
DOTTED
 62
     7
100
AcDbLine
 10
-3.75287697840031
 20
130.9218078096818
 30
0.0
 11
-3.6407449440444
 21
131.0339398440377
 31
0.0
  0
LINE
  5
16D
330
1F
100
AcDbEntity
  8
0
  6
DOTTED
 62
     7
100
AcDbLine
 10
-4.1286129096884
 20
131.5218078096818
 30
0.0
 11
-5.72861290968831
 21
131.5218078096818
 31
0.0
  0
LINE
  5
16E
330
1F
100
AcDbEntity
  8
0
  6
DOTTED
 62
     7
100
AcDbLine
 10
-6.21648087533231
 20
136.0096757753258
 30
0.0
 11
-5.72861290968831
 21
135.5218078096818
 31
0.0
  0
LINE
  5
16F
330
1F
100
AcDbEntity
  8
0
  6
DOTTED
 62
     7
100
AcDbLine
 10
-5.72861290968831
 20
135.5218078096818
 30
0.0
 11
-4.1286129096884
 21
135.5218078096818
 31
0.0
  0
LINE
  5
170
330
1F
100
AcDbEntity
  8
0
  6
DOTTED
 62
     7
100
AcDbLine
 10
-4.1286129096884
 20
133.8218078096818
 30
0.0
 11
-5.72861290968831
 21
133.8218078096818
 31
0.0
  0
LINE
  5
171
330
1F
100
AcDbEntity
  8
0
  6
DOTTED
 62
     7
100
AcDbLine
 10
-6.02861290968826
 20
133.5218078096818
 30
0.0
 11
-5.72861290968831
 21
133.2218078096818
 31
0.0
  0
LINE
  5
172
330
1F
100
AcDbEntity
  8
0
  6
DOTTED
 62
     7
100
AcDbLine
 10
-6.27861290968826
 20
133.6718078096818
 30
0.0
 11
-5.92861290968835
 21
134.0218078096818
 31
0.0
  0
LINE
  5
173
330
1F
100
AcDbEntity
  8
0
  6
DOTTED
 62
     7
100
AcDbLine
 10
-6.27861290968826
 20
133.3718078096819
 30
0.0
 11
-6.52861290968826
 21
133.3718078096819
 31
0.0
  0
LINE
  5
174
330
1F
100
AcDbEntity
  8
0
  6
DOTTED
 62
     7
100
AcDbLine
 10
-5.92861290968835
 20
133.0218078096818
 30
0.0
 11
-6.27861290968826
 21
133.3718078096819
 31
0.0
  0
LINE
  5
175
330
1F
100
AcDbEntity
  8
0
  6
DOTTED
 62
     7
100
AcDbLine
 10
-6.52861290968826
 20
133.6718078096818
 30
0.0
 11
-6.27861290968826
 21
133.6718078096818
 31
0.0
  0
LINE
  5
176
330
1F
100
AcDbEntity
  8
0
  6
DOTTED
 62
     7
100
AcDbLine
 10
-5.72861290968831
 20
133.8218078096818
 30
0.0
 11
-6.02861290968826
 21
133.5218078096818
 31
0.0
  0
LINE
  5
177
330
1F
100
AcDbEntity
  8
0
  6
DOTTED
 62
     7
100
AcDbLine
 10
-5.72861290968831
 20
133.2218078096818
 30
0.0
 11
-4.1286129096884
 21
133.2218078096818
 31
0.0
  0
LINE
  5
178
330
1F
100
AcDbEntity
  8
0
  6
DOTTED
 62
     7
100
AcDbLine
 10
-3.75287697840031
 20
136.1218078096819
 30
0.0
 11
-6.1043488409764
 21
136.1218078096819
 31
0.0
  0
LINE
  5
179
330
1F
100
AcDbEntity
  8
0
  6
DOTTED
 62
     7
100
AcDbLine
 10
-5.92861290968835
 20
135.3218078096818
 30
0.0
 11
-6.41648087533235
 21
135.8096757753259
 31
0.0
  0
LINE
  5
17A
330
1F
100
AcDbEntity
  8
0
  6
DOTTED
 62
     7
100
AcDbLine
 10
-5.92861290968835
 20
134.0218078096818
 30
0.0
 11
-5.92861290968835
 21
135.3218078096818
 31
0.0
  0
LINE
  5
17B
330
1F
100
AcDbEntity
  8
0
  6
DOTTED
 62
     7
100
AcDbLine
 10
-5.92861290968835
 20
131.7218078096818
 30
0.0
 11
-5.92861290968835
 21
133.0218078096818
 31
0.0
  0
LINE
  5
17C
330
1F
100
AcDbEntity
  8
0
  6
DOTTED
 62
     7
100
AcDbLine
 10
-5.72861290968831
 20
131.5218078096818
 30
0.0
 11
-6.21648087533231
 21
131.0339398440377
 31
0.0
  0
LINE
  5
17D
330
1F
100
AcDbEntity
  8
0
  6
DOTTED
 62
     7
100
AcDbLine
 10
-6.21648087533231
 20
131.0339398440377
 30
0.0
 11
-6.1043488409764
 21
130.9218078096818
 31
0.0
  0
LINE
  5
17E
330
1F
100
AcDbEntity
  8
0
  6
DOTTED
 62
     7
100
AcDbLine
 10
-6.1043488409764
 20
136.1218078096819
 30
0.0
 11
-6.21648087533231
 21
136.0096757753258
 31
0.0
  0
LINE
  5
17F
330
1F
100
AcDbEntity
  8
0
  6
DOTTED
 62
     7
100
AcDbLine
 10
-6.41648087533235
 20
135.8096757753259
 30
0.0
 11
-6.52861290968826
 21
135.6975437409699
 31
0.0
  0
LINE
  5
180
330
1F
100
AcDbEntity
  8
0
  6
DOTTED
 62
     7
100
AcDbLine
 10
-6.52861290968826
 20
135.6975437409699
 30
0.0
 11
-6.52861290968826
 21
133.6718078096818
 31
0.0
  0
LINE
  5
181
330
1F
100
AcDbEntity
  8
0
  6
DOTTED
 62
     7
100
AcDbLine
 10
-6.52861290968826
 20
133.3718078096819
 30
0.0
 11
-6.52861290968826
 21
131.3460718783937
 31
0.0
  0
LINE
  5
182
330
1F
100
AcDbEntity
  8
0
  6
DOTTED
 62
     7
100
AcDbLine
 10
-4.1286129096884
 20
135.5218078096818
 30
0.0
 11
-3.6407449440444
 21
136.0096757753258
 31
0.0
  0
LINE
  5
183
330
1F
100
AcDbEntity
  8
0
  6
DOTTED
 62
     7
100
AcDbLine
 10
-4.1286129096884
 20
133.2218078096818
 30
0.0
 11
-3.82861290968845
 21
133.5218078096818
 31
0.0
  0
LINE
  5
184
330
1F
100
AcDbEntity
  8
0
  6
DOTTED
 62
     7
100
AcDbLine
 10
-3.82861290968845
 20
133.5218078096818
 30
0.0
 11
-4.1286129096884
 21
133.8218078096818
 31
0.0
  0
LINE
  5
185
330
1F
100
AcDbEntity
  8
0
  6
DOTTED
 62
     7
100
AcDbLine
 10
-3.92861290968835
 20
133.0218078096818
 30
0.0
 11
-3.92861290968835
 21
131.7218078096818
 31
0.0
  0
LINE
  5
186
330
1F
100
AcDbEntity
  8
0
  6
DOTTED
 62
     7
100
AcDbLine
 10
-3.92861290968835
 20
135.3218078096818
 30
0.0
 11
-3.92861290968835
 21
134.0218078096818
 31
0.0
  0
LINE
  5
187
330
1F
100
AcDbEntity
  8
0
  6
DOTTED
 62
     7
100
AcDbLine
 10
-3.32861290968845
 20
131.3460718783938
 30
0.0
 11
-3.32861290968845
 21
133.3718078096819
 31
0.0
  0
LINE
  5
188
330
1F
100
AcDbEntity
  8
0
  6
DOTTED
 62
     7
100
AcDbLine
 10
-3.92861290968835
 20
131.7218078096818
 30
0.0
 11
-3.44074494404435
 21
131.2339398440378
 31
0.0
  0
LINE
  5
189
330
1F
100
AcDbEntity
  8
0
  6
DOTTED
 62
     7
100
AcDbLine
 10
-3.44074494404435
 20
131.2339398440378
 30
0.0
 11
-3.32861290968845
 21
131.3460718783938
 31
0.0
  0
LINE
  5
18A
330
1F
100
AcDbEntity
  8
0
  6
CONTINUOUS
 62
     7
100
AcDbLine
 10
9.89638709031169
 20
133.8218078096818
 30
0.0
 11
9.89638709031169
 21
137.7218078096818
 31
0.0
  0
LINE
  5
18B
330
1F
100
AcDbEntity
  8
0
  6
CONTINUOUS
 62
     7
100
AcDbLine
 10
9.89638709031169
 20
133.2218078096818
 30
0.0
 11
9.89638709031169
 21
133.8218078096818
 31
0.0
  0
LINE
  5
18C
330
1F
100
AcDbEntity
  8
0
  6
CONTINUOUS
 62
     7
100
AcDbLine
 10
5.79638709031155
 20
133.8218078096818
 30
0.0
 11
5.79638709031155
 21
137.7218078096818
 31
0.0
  0
LINE
  5
18D
330
1F
100
AcDbEntity
  8
0
  6
CONTINUOUS
 62
     7
100
AcDbLine
 10
5.79638709031155
 20
133.8218078096818
 30
0.0
 11
5.79638709031155
 21
133.2218078096818
 31
0.0
  0
LINE
  5
18E
330
1F
100
AcDbEntity
  8
0
  6
CONTINUOUS
 62
     7
100
AcDbLine
 10
5.4963870903116
 20
129.3218078096818
 30
0.0
 11
5.4963870903116
 21
130.3218078096818
 31
0.0
  0
LINE
  5
18F
330
1F
100
AcDbEntity
  8
0
  6
DOTTED
 62
     7
100
AcDbLine
 10
5.07138709031165
 20
133.3718078096819
 30
0.0
 11
4.82138709031165
 21
133.3718078096819
 31
0.0
  0
LINE
  5
190
330
1F
100
AcDbEntity
  8
0
  6
DOTTED
 62
     7
100
AcDbLine
 10
5.07138709031165
 20
133.6718078096818
 30
0.0
 11
5.07138709031165
 21
135.6975437409699
 31
0.0
  0
LINE
  5
191
330
1F
100
AcDbEntity
  8
0
  6
DOTTED
 62
     7
100
AcDbLine
 10
4.82138709031165
 20
133.6718078096818
 30
0.0
 11
5.07138709031165
 21
133.6718078096818
 31
0.0
  0
LINE
  5
192
330
1F
100
AcDbEntity
  8
0
  6
DOTTED
 62
     7
100
AcDbLine
 10
5.07138709031165
 20
135.6975437409699
 30
0.0
 11
4.95925505595574
 21
135.8096757753259
 31
0.0
  0
LINE
  5
193
330
1F
100
AcDbEntity
  8
0
  6
DOTTED
 62
     7
100
AcDbLine
 10
1.8713870903116
 20
133.3718078096819
 30
0.0
 11
1.8713870903116
 21
131.3460718783938
 31
0.0
  0
LINE
  5
194
330
1F
100
AcDbEntity
  8
0
  6
CONTINUOUS
 62
     7
100
AcDbLine
 10
7.09638709031174
 20
127.7218078096818
 30
0.0
 11
8.64638709031055
 21
127.7218078096818
 31
0.0
  0
LINE
  5
195
330
1F
100
AcDbEntity
  8
0
  6
CONTINUOUS
 62
     7
100
AcDbLine
 10
8.59638709031174
 20
128.0218078096817
 30
0.0
 11
7.09638709031174
 21
128.0218078096817
 31
0.0
  0
LINE
  5
196
330
1F
100
AcDbEntity
  8
0
  6
DOTTED
 62
     7
100
AcDbLine
 10
-1.90434884097635
 20
130.9218078096818
 30
0.0
 11
0.44712302159974
 21
130.9218078096818
 31
0.0
  0
LINE
  5
197
330
1F
100
AcDbEntity
  8
0
  6
DOTTED
 62
     7
100
AcDbLine
 10
-2.01648087533226
 20
131.0339398440377
 30
0.0
 11
-1.90434884097635
 21
130.9218078096818
 31
0.0
  0
LINE
  5
198
330
1F
100
AcDbEntity
  8
0
  6
DOTTED
 62
     7
100
AcDbLine
 10
4.95925505595574
 20
131.2339398440378
 30
0.0
 11
5.07138709031165
 21
131.3460718783938
 31
0.0
  0
LINE
  5
199
330
1F
100
AcDbEntity
  8
0
  6
DOTTED
 62
     7
100
AcDbLine
 10
4.64712302159955
 20
130.9218078096818
 30
0.0
 11
4.75925505595569
 21
131.0339398440377
 31
0.0
  0
LINE
  5
19A
330
1F
100
AcDbEntity
  8
0
  6
DOTTED
 62
     7
100
AcDbLine
 10
0.44712302159974
 20
130.9218078096818
 30
0.0
 11
0.55925505595565
 21
131.0339398440377
 31
0.0
  0
LINE
  5
19B
330
1F
100
AcDbEntity
  8
0
  6
DOTTED
 62
     7
100
AcDbLine
 10
2.18351912466755
 20
131.0339398440378
 30
0.0
 11
2.29565115902369
 21
130.9218078096818
 31
0.0
  0
LINE
  5
19C
330
1F
100
AcDbEntity
  8
0
  6
DOTTED
 62
     7
100
AcDbLine
 10
2.29565115902369
 20
130.9218078096818
 30
0.0
 11
4.64712302159955
 21
130.9218078096818
 31
0.0
  0
LINE
  5
19D
330
1F
100
AcDbEntity
  8
0
  6
DOTTED
 62
     7
100
AcDbLine
 10
-2.32861290968845
 20
131.3460718783938
 30
0.0
 11
-2.21648087533231
 21
131.2339398440378
 31
0.0
  0
LINE
  5
19E
330
1F
100
AcDbEntity
  8
0
  6
DOTTED
 62
     7
100
AcDbLine
 10
0.75925505595569
 20
131.2339398440378
 30
0.0
 11
0.8713870903116
 21
131.3460718783937
 31
0.0
  0
LINE
  5
19F
330
1F
100
AcDbEntity
  8
0
  6
DOTTED
 62
     7
100
AcDbLine
 10
-2.21648087533231
 20
131.2339398440378
 30
0.0
 11
-1.72861290968831
 21
131.7218078096818
 31
0.0
  0
LINE
  5
1A0
330
1F
100
AcDbEntity
  8
0
  6
DOTTED
 62
     7
100
AcDbLine
 10
-2.32861290968845
 20
133.3718078096819
 30
0.0
 11
-2.32861290968845
 21
131.3460718783938
 31
0.0
  0
LINE
  5
1A1
330
1F
100
AcDbEntity
  8
0
  6
DOTTED
 62
     7
100
AcDbLine
 10
2.47138709031174
 20
131.7218078096818
 30
0.0
 11
2.47138709031174
 21
133.0218078096818
 31
0.0
  0
LINE
  5
1A2
330
1F
100
AcDbEntity
  8
0
  6
DOTTED
 62
     7
100
AcDbLine
 10
4.47138709031174
 20
131.7218078096818
 30
0.0
 11
4.95925505595574
 21
131.2339398440378
 31
0.0
  0
LINE
  5
1A3
330
1F
100
AcDbEntity
  8
0
  6
DOTTED
 62
     7
100
AcDbLine
 10
0.8713870903116
 20
131.3460718783937
 30
0.0
 11
0.8713870903116
 21
133.3718078096819
 31
0.0
  0
LINE
  5
1A4
330
1F
100
AcDbEntity
  8
0
  6
DOTTED
 62
     7
100
AcDbLine
 10
0.27138709031169
 20
133.0218078096818
 30
0.0
 11
0.27138709031169
 21
131.7218078096818
 31
0.0
  0
LINE
  5
1A5
330
1F
100
AcDbEntity
  8
0
  6
DOTTED
 62
     7
100
AcDbLine
 10
-1.72861290968831
 20
133.0218078096818
 30
0.0
 11
-2.07861290968845
 21
133.3718078096819
 31
0.0
  0
LINE
  5
1A6
330
1F
100
AcDbEntity
  8
0
  6
DOTTED
 62
     7
100
AcDbLine
 10
0.27138709031169
 20
131.7218078096818
 30
0.0
 11
0.75925505595569
 21
131.2339398440378
 31
0.0
  0
LINE
  5
1A7
330
1F
100
AcDbEntity
  8
0
  6
DOTTED
 62
     7
100
AcDbLine
 10
0.55925505595565
 20
131.0339398440377
 30
0.0
 11
0.07138709031165
 21
131.5218078096818
 31
0.0
  0
LINE
  5
1A8
330
1F
100
AcDbEntity
  8
0
  6
DOTTED
 62
     7
100
AcDbLine
 10
2.67138709031155
 20
131.5218078096818
 30
0.0
 11
2.18351912466755
 21
131.0339398440378
 31
0.0
  0
LINE
  5
1A9
330
1F
100
AcDbEntity
  8
0
  6
DOTTED
 62
     7
100
AcDbLine
 10
1.8713870903116
 20
131.3460718783938
 30
0.0
 11
1.98351912466774
 21
131.2339398440378
 31
0.0
  0
LINE
  5
1AA
330
1F
100
AcDbEntity
  8
0
  6
DOTTED
 62
     7
100
AcDbLine
 10
1.98351912466774
 20
131.2339398440378
 30
0.0
 11
2.47138709031174
 21
131.7218078096818
 31
0.0
  0
LINE
  5
1AB
330
1F
100
AcDbEntity
  8
0
  6
DOTTED
 62
     7
100
AcDbLine
 10
0.07138709031165
 20
131.5218078096818
 30
0.0
 11
-1.52861290968826
 21
131.5218078096818
 31
0.0
  0
LINE
  5
1AC
330
1F
100
AcDbEntity
  8
0
  6
DOTTED
 62
     7
100
AcDbLine
 10
4.27138709031169
 20
131.5218078096818
 30
0.0
 11
2.67138709031155
 21
131.5218078096818
 31
0.0
  0
LINE
  5
1AD
330
1F
100
AcDbEntity
  8
0
  6
CONTINUOUS
 62
     7
100
AcDbLine
 10
9.89638709031169
 20
129.3218078096818
 30
0.0
 11
9.89638709031169
 21
133.2218078096818
 31
0.0
  0
LINE
  5
1AE
330
1F
100
AcDbEntity
  8
0
  6
DOTTED
 62
     7
100
AcDbLine
 10
4.75925505595569
 20
131.0339398440377
 30
0.0
 11
4.27138709031169
 21
131.5218078096818
 31
0.0
  0
LINE
  5
1AF
330
1F
100
AcDbEntity
  8
0
  6
DOTTED
 62
     7
100
AcDbLine
 10
-1.52861290968826
 20
131.5218078096818
 30
0.0
 11
-2.01648087533226
 21
131.0339398440377
 31
0.0
  0
LINE
  5
1B0
330
1F
100
AcDbEntity
  8
0
  6
DOTTED
 62
     7
100
AcDbLine
 10
-1.72861290968831
 20
131.7218078096818
 30
0.0
 11
-1.72861290968831
 21
133.0218078096818
 31
0.0
  0
LINE
  5
1B1
330
1F
100
AcDbEntity
  8
0
  6
CONTINUOUS
 62
     7
100
AcDbLine
 10
5.79638709031155
 20
133.2218078096818
 30
0.0
 11
9.89638709031169
 21
133.2218078096818
 31
0.0
  0
LINE
  5
1B2
330
1F
100
AcDbEntity
  8
0
  6
DOTTED
 62
     7
100
AcDbLine
 10
2.47138709031174
 20
133.0218078096818
 30
0.0
 11
2.1213870903116
 21
133.3718078096819
 31
0.0
  0
LINE
  5
1B3
330
1F
100
AcDbEntity
  8
0
  6
DOTTED
 62
     7
100
AcDbLine
 10
2.67138709031155
 20
133.2218078096818
 30
0.0
 11
4.27138709031169
 21
133.2218078096818
 31
0.0
  0
LINE
  5
1B4
330
1F
100
AcDbEntity
  8
0
  6
DOTTED
 62
     7
100
AcDbLine
 10
-1.52861290968826
 20
133.2218078096818
 30
0.0
 11
0.07138709031165
 21
133.2218078096818
 31
0.0
  0
LINE
  5
1B5
330
1F
100
AcDbEntity
  8
0
  6
DOTTED
 62
     7
100
AcDbLine
 10
-2.07861290968845
 20
133.3718078096819
 30
0.0
 11
-2.32861290968845
 21
133.3718078096819
 31
0.0
  0
LINE
  5
1B6
330
1F
100
AcDbEntity
  8
0
  6
DOTTED
 62
     7
100
AcDbLine
 10
2.1213870903116
 20
133.3718078096819
 30
0.0
 11
1.8713870903116
 21
133.3718078096819
 31
0.0
  0
LINE
  5
1B7
330
1F
100
AcDbEntity
  8
0
  6
CONTINUOUS
 62
     7
100
AcDbLine
 10
5.79638709031155
 20
129.3218078096818
 30
0.0
 11
5.79638709031155
 21
133.2218078096818
 31
0.0
  0
LINE
  5
1B8
330
1F
100
AcDbEntity
  8
0
  6
DOTTED
 62
     7
100
AcDbLine
 10
5.07138709031165
 20
131.3460718783938
 30
0.0
 11
5.07138709031165
 21
133.3718078096819
 31
0.0
  0
LINE
  5
1B9
330
1F
100
AcDbEntity
  8
0
  6
DOTTED
 62
     7
100
AcDbLine
 10
4.47138709031174
 20
133.0218078096818
 30
0.0
 11
4.47138709031174
 21
131.7218078096818
 31
0.0
  0
LINE
  5
1BA
330
1F
100
AcDbEntity
  8
0
  6
DOTTED
 62
     7
100
AcDbLine
 10
4.82138709031165
 20
133.3718078096819
 30
0.0
 11
4.47138709031174
 21
133.0218078096818
 31
0.0
  0
LINE
  5
1BB
330
1F
100
AcDbEntity
  8
0
  6
CONTINUOUS
 62
     7
100
AcDbLine
 10
10.2463870903116
 20
129.3218078096818
 30
0.0
 11
10.2463870903116
 21
137.7218078096818
 31
0.0
  0
LINE
  5
1BC
330
1F
100
AcDbEntity
  8
0
  6
CONTINUOUS
 62
     7
100
AcDbLine
 10
12.29638758151555
 20
141.0218078096818
 30
0.0
 11
12.93638712782558
 21
141.0218078096818
 31
0.0
  0
LINE
  5
1BD
330
1F
100
AcDbEntity
  8
0
  6
CONTINUOUS
 62
     7
100
AcDbLine
 10
12.93638712782558
 20
141.0218078096818
 30
0.0
 11
13.99638758151559
 21
141.0218078096818
 31
0.0
  0
LINE
  5
1BE
330
1F
100
AcDbEntity
  8
0
  6
CONTINUOUS
 62
     7
100
AcDbLine
 10
8.64638709031055
 20
139.3218078096818
 30
0.0
 11
7.09638709031174
 21
139.3218078096818
 31
0.0
  0
LINE
  5
1BF
330
1F
100
AcDbEntity
  8
0
  6
CONTINUOUS
 62
     7
100
AcDbLine
 10
8.59638709031174
 20
139.0218078096818
 30
0.0
 11
7.09638709031174
 21
139.0218078096818
 31
0.0
  0
LINE
  5
1C0
330
1F
100
AcDbEntity
  8
0
  6
CONTINUOUS
 62
     7
100
AcDbLine
 10
6.86552261345059
 20
141.0218078096818
 30
0.0
 11
12.29638758151555
 21
141.0218078096818
 31
0.0
  0
LINE
  5
1C1
330
1F
100
AcDbEntity
  8
0
  6
CONTINUOUS
 62
     7
100
AcDbLine
 10
6.01699447602664
 20
141.0218078096818
 30
0.0
 11
6.86552261345059
 21
141.0218078096818
 31
0.0
  0
LINE
  5
1C2
330
1F
100
AcDbEntity
  8
0
  6
CONTINUOUS
 62
     7
100
AcDbLine
 10
2.79638801914257
 20
141.0218078096818
 30
0.0
 11
6.01699447602664
 21
141.0218078096818
 31
0.0
  0
LINE
  5
1C3
330
1F
100
AcDbEntity
  8
0
  6
CONTINUOUS
 62
     7
100
AcDbLine
 10
-1.40361198085725
 20
141.0218078096818
 30
0.0
 11
1.59638801914275
 21
141.0218078096818
 31
0.0
  0
LINE
  5
1C4
330
1F
100
AcDbEntity
  8
0
  6
CONTINUOUS
 62
     7
100
AcDbLine
 10
1.59638801914275
 20
141.0218078096818
 30
0.0
 11
2.79638801914257
 21
141.0218078096818
 31
0.0
  0
LINE
  5
1C5
330
1F
100
AcDbEntity
  8
0
  6
CONTINUOUS
 62
     7
100
AcDbLine
 10
-8.40361241845926
 20
141.0218078096818
 30
0.0
 11
-1.40361198085725
 21
141.0218078096818
 31
0.0
  0
LINE
  5
1C6
330
1F
100
AcDbEntity
  8
0
  6
DOTTED
 62
     7
100
AcDbLine
 10
0.07138709031165
 20
135.5218078096818
 30
0.0
 11
0.55925505595565
 21
136.0096757753258
 31
0.0
  0
LINE
  5
1C7
330
1F
100
AcDbEntity
  8
0
  6
DOTTED
 62
     7
100
AcDbLine
 10
4.95925505595574
 20
135.8096757753259
 30
0.0
 11
4.47138709031174
 21
135.3218078096818
 31
0.0
  0
LINE
  5
1C8
330
1F
100
AcDbEntity
  8
0
  6
DOTTED
 62
     7
100
AcDbLine
 10
-2.01648087533226
 20
136.0096757753258
 30
0.0
 11
-1.52861290968826
 21
135.5218078096818
 31
0.0
  0
LINE
  5
1C9
330
1F
100
AcDbEntity
  8
0
  6
DOTTED
 62
     7
100
AcDbLine
 10
4.27138709031169
 20
135.5218078096818
 30
0.0
 11
4.75925505595569
 21
136.0096757753258
 31
0.0
  0
LINE
  5
1CA
330
1F
100
AcDbEntity
  8
0
  6
DOTTED
 62
     7
100
AcDbLine
 10
0.75925505595569
 20
135.8096757753259
 30
0.0
 11
0.27138709031169
 21
135.3218078096818
 31
0.0
  0
LINE
  5
1CB
330
1F
100
AcDbEntity
  8
0
  6
DOTTED
 62
     7
100
AcDbLine
 10
2.18351912466755
 20
136.0096757753258
 30
0.0
 11
2.67138709031155
 21
135.5218078096818
 31
0.0
  0
LINE
  5
1CC
330
1F
100
AcDbEntity
  8
0
  6
DOTTED
 62
     7
100
AcDbLine
 10
2.29565115902369
 20
136.1218078096819
 30
0.0
 11
2.18351912466755
 21
136.0096757753258
 31
0.0
  0
LINE
  5
1CD
330
1F
100
AcDbEntity
  8
0
  6
DOTTED
 62
     7
100
AcDbLine
 10
4.75925505595569
 20
136.0096757753258
 30
0.0
 11
4.64712302159955
 21
136.1218078096819
 31
0.0
  0
LINE
  5
1CE
330
1F
100
AcDbEntity
  8
0
  6
DOTTED
 62
     7
100
AcDbLine
 10
-1.90434884097635
 20
136.1218078096819
 30
0.0
 11
-2.01648087533226
 21
136.0096757753258
 31
0.0
  0
LINE
  5
1CF
330
1F
100
AcDbEntity
  8
0
  6
DOTTED
 62
     7
100
AcDbLine
 10
0.44712302159974
 20
136.1218078096819
 30
0.0
 11
-1.90434884097635
 21
136.1218078096819
 31
0.0
  0
LINE
  5
1D0
330
1F
100
AcDbEntity
  8
0
  6
DOTTED
 62
     7
100
AcDbLine
 10
0.55925505595565
 20
136.0096757753258
 30
0.0
 11
0.44712302159974
 21
136.1218078096819
 31
0.0
  0
LINE
  5
1D1
330
1F
100
AcDbEntity
  8
0
  6
DOTTED
 62
     7
100
AcDbLine
 10
4.64712302159955
 20
136.1218078096819
 30
0.0
 11
2.29565115902369
 21
136.1218078096819
 31
0.0
  0
LINE
  5
1D2
330
1F
100
AcDbEntity
  8
0
  6
DOTTED
 62
     7
100
AcDbLine
 10
1.98351912466774
 20
135.8096757753259
 30
0.0
 11
1.8713870903116
 21
135.6975437409699
 31
0.0
  0
LINE
  5
1D3
330
1F
100
AcDbEntity
  8
0
  6
DOTTED
 62
     7
100
AcDbLine
 10
0.8713870903116
 20
135.6975437409699
 30
0.0
 11
0.75925505595569
 21
135.8096757753259
 31
0.0
  0
LINE
  5
1D4
330
1F
100
AcDbEntity
  8
0
  6
DOTTED
 62
     7
100
AcDbLine
 10
-2.21648087533231
 20
135.8096757753259
 30
0.0
 11
-2.32861290968845
 21
135.6975437409699
 31
0.0
  0
LINE
  5
1D5
330
1F
100
AcDbEntity
  8
0
  6
DOTTED
 62
     7
100
AcDbLine
 10
2.67138709031155
 20
135.5218078096818
 30
0.0
 11
4.27138709031169
 21
135.5218078096818
 31
0.0
  0
LINE
  5
1D6
330
1F
100
AcDbEntity
  8
0
  6
DOTTED
 62
     7
100
AcDbLine
 10
-1.72861290968831
 20
135.3218078096818
 30
0.0
 11
-2.21648087533231
 21
135.8096757753259
 31
0.0
  0
LINE
  5
1D7
330
1F
100
AcDbEntity
  8
0
  6
DOTTED
 62
     7
100
AcDbLine
 10
-1.52861290968826
 20
135.5218078096818
 30
0.0
 11
0.07138709031165
 21
135.5218078096818
 31
0.0
  0
LINE
  5
1D8
330
1F
100
AcDbEntity
  8
0
  6
DOTTED
 62
     7
100
AcDbLine
 10
2.47138709031174
 20
135.3218078096818
 30
0.0
 11
1.98351912466774
 21
135.8096757753259
 31
0.0
  0
LINE
  5
1D9
330
1F
100
AcDbEntity
  8
0
  6
DOTTED
 62
     7
100
AcDbLine
 10
-1.72861290968831
 20
134.0218078096818
 30
0.0
 11
-1.72861290968831
 21
135.3218078096818
 31
0.0
  0
LINE
  5
1DA
330
1F
100
AcDbEntity
  8
0
  6
DOTTED
 62
     7
100
AcDbLine
 10
4.47138709031174
 20
135.3218078096818
 30
0.0
 11
4.47138709031174
 21
134.0218078096818
 31
0.0
  0
LINE
  5
1DB
330
1F
100
AcDbEntity
  8
0
  6
DOTTED
 62
     7
100
AcDbLine
 10
2.47138709031174
 20
134.0218078096818
 30
0.0
 11
2.47138709031174
 21
135.3218078096818
 31
0.0
  0
LINE
  5
1DC
330
1F
100
AcDbEntity
  8
0
  6
DOTTED
 62
     7
100
AcDbLine
 10
-2.32861290968845
 20
133.6718078096818
 30
0.0
 11
-2.07861290968845
 21
133.6718078096818
 31
0.0
  0
LINE
  5
1DD
330
1F
100
AcDbEntity
  8
0
  6
DOTTED
 62
     7
100
AcDbLine
 10
-2.32861290968845
 20
135.6975437409699
 30
0.0
 11
-2.32861290968845
 21
133.6718078096818
 31
0.0
  0
LINE
  5
1DE
330
1F
100
AcDbEntity
  8
0
  6
CONTINUOUS
 62
     7
100
AcDbLine
 10
9.89638709031169
 20
133.8218078096818
 30
0.0
 11
5.79638709031155
 21
133.8218078096818
 31
0.0
  0
LINE
  5
1DF
330
1F
100
AcDbEntity
  8
0
  6
DOTTED
 62
     7
100
AcDbLine
 10
0.27138709031169
 20
135.3218078096818
 30
0.0
 11
0.27138709031169
 21
134.0218078096818
 31
0.0
  0
LINE
  5
1E0
330
1F
100
AcDbEntity
  8
0
  6
DOTTED
 62
     7
100
AcDbLine
 10
0.07138709031165
 20
133.8218078096818
 30
0.0
 11
-1.52861290968826
 21
133.8218078096818
 31
0.0
  0
LINE
  5
1E1
330
1F
100
AcDbEntity
  8
0
  6
DOTTED
 62
     7
100
AcDbLine
 10
4.27138709031169
 20
133.8218078096818
 30
0.0
 11
2.67138709031155
 21
133.8218078096818
 31
0.0
  0
LINE
  5
1E2
330
1F
100
AcDbEntity
  8
0
  6
DOTTED
 62
     7
100
AcDbLine
 10
1.8713870903116
 20
135.6975437409699
 30
0.0
 11
1.8713870903116
 21
133.6718078096818
 31
0.0
  0
LINE
  5
1E3
330
1F
100
AcDbEntity
  8
0
  6
DOTTED
 62
     7
100
AcDbLine
 10
1.8713870903116
 20
133.6718078096818
 30
0.0
 11
2.1213870903116
 21
133.6718078096818
 31
0.0
  0
LINE
  5
1E4
330
1F
100
AcDbEntity
  8
0
  6
DOTTED
 62
     7
100
AcDbLine
 10
-2.07861290968845
 20
133.6718078096818
 30
0.0
 11
-1.72861290968831
 21
134.0218078096818
 31
0.0
  0
LINE
  5
1E5
330
1F
100
AcDbEntity
  8
0
  6
DOTTED
 62
     7
100
AcDbLine
 10
0.8713870903116
 20
133.6718078096818
 30
0.0
 11
0.8713870903116
 21
135.6975437409699
 31
0.0
  0
LINE
  5
1E6
330
1F
100
AcDbEntity
  8
0
  6
DOTTED
 62
     7
100
AcDbLine
 10
2.1213870903116
 20
133.6718078096818
 30
0.0
 11
2.47138709031174
 21
134.0218078096818
 31
0.0
  0
LINE
  5
1E7
330
1F
100
AcDbEntity
  8
0
  6
DOTTED
 62
     7
100
AcDbLine
 10
0.6213870903116
 20
133.6718078096818
 30
0.0
 11
0.8713870903116
 21
133.6718078096818
 31
0.0
  0
LINE
  5
1E8
330
1F
100
AcDbEntity
  8
0
  6
DOTTED
 62
     7
100
AcDbLine
 10
4.47138709031174
 20
134.0218078096818
 30
0.0
 11
4.82138709031165
 21
133.6718078096818
 31
0.0
  0
LINE
  5
1E9
330
1F
100
AcDbEntity
  8
0
  6
DOTTED
 62
     7
100
AcDbLine
 10
0.27138709031169
 20
134.0218078096818
 30
0.0
 11
0.6213870903116
 21
133.6718078096818
 31
0.0
  0
LINE
  5
1EA
330
1F
100
AcDbEntity
  8
0
  6
DOTTED
 62
     7
100
AcDbLine
 10
-1.52861290968826
 20
133.8218078096818
 30
0.0
 11
-1.82861290968844
 21
133.5218078096818
 31
0.0
  0
LINE
  5
1EB
330
1F
100
AcDbEntity
  8
0
  6
DOTTED
 62
     7
100
AcDbLine
 10
0.3713870903116
 20
133.5218078096818
 30
0.0
 11
0.07138709031165
 21
133.8218078096818
 31
0.0
  0
LINE
  5
1EC
330
1F
100
AcDbEntity
  8
0
  6
DOTTED
 62
     7
100
AcDbLine
 10
0.07138709031165
 20
133.2218078096818
 30
0.0
 11
0.3713870903116
 21
133.5218078096818
 31
0.0
  0
LINE
  5
1ED
330
1F
100
AcDbEntity
  8
0
  6
DOTTED
 62
     7
100
AcDbLine
 10
-1.82861290968844
 20
133.5218078096818
 30
0.0
 11
-1.52861290968826
 21
133.2218078096818
 31
0.0
  0
LINE
  5
1EE
330
1F
100
AcDbEntity
  8
0
  6
DOTTED
 62
     7
100
AcDbLine
 10
2.67138709031155
 20
133.8218078096818
 30
0.0
 11
2.3713870903116
 21
133.5218078096818
 31
0.0
  0
LINE
  5
1EF
330
1F
100
AcDbEntity
  8
0
  6
DOTTED
 62
     7
100
AcDbLine
 10
4.27138709031169
 20
133.2218078096818
 30
0.0
 11
4.57138709031165
 21
133.5218078096818
 31
0.0
  0
LINE
  5
1F0
330
1F
100
AcDbEntity
  8
0
  6
DOTTED
 62
     7
100
AcDbLine
 10
2.3713870903116
 20
133.5218078096818
 30
0.0
 11
2.67138709031155
 21
133.2218078096818
 31
0.0
  0
LINE
  5
1F1
330
1F
100
AcDbEntity
  8
0
  6
DOTTED
 62
     7
100
AcDbLine
 10
0.8713870903116
 20
133.3718078096819
 30
0.0
 11
0.6213870903116
 21
133.3718078096819
 31
0.0
  0
LINE
  5
1F2
330
1F
100
AcDbEntity
  8
0
  6
DOTTED
 62
     7
100
AcDbLine
 10
4.57138709031165
 20
133.5218078096818
 30
0.0
 11
4.27138709031169
 21
133.8218078096818
 31
0.0
  0
LINE
  5
1F3
330
1F
100
AcDbEntity
  8
0
  6
DOTTED
 62
     7
100
AcDbLine
 10
-3.57861290968845
 20
133.6718078096818
 30
0.0
 11
-3.32861290968845
 21
133.6718078096818
 31
0.0
  0
LINE
  5
1F4
330
1F
100
AcDbEntity
  8
0
  6
DOTTED
 62
     7
100
AcDbLine
 10
-3.32861290968845
 20
133.6718078096818
 30
0.0
 11
-3.32861290968845
 21
135.6975437409699
 31
0.0
  0
LINE
  5
1F5
330
1F
100
AcDbEntity
  8
0
  6
DOTTED
 62
     7
100
AcDbLine
 10
-3.32861290968845
 20
135.6975437409699
 30
0.0
 11
-3.44074494404435
 21
135.8096757753259
 31
0.0
  0
LINE
  5
1F6
330
1F
100
AcDbEntity
  8
0
  6
DOTTED
 62
     7
100
AcDbLine
 10
-3.92861290968835
 20
134.0218078096818
 30
0.0
 11
-3.57861290968845
 21
133.6718078096818
 31
0.0
  0
LINE
  5
1F7
330
1F
100
AcDbEntity
  8
0
  6
DOTTED
 62
     7
100
AcDbLine
 10
-3.32861290968845
 20
133.3718078096819
 30
0.0
 11
-3.57861290968845
 21
133.3718078096819
 31
0.0
  0
LINE
  5
1F8
330
1F
100
AcDbEntity
  8
0
  6
DOTTED
 62
     7
100
AcDbLine
 10
-3.6407449440444
 20
136.0096757753258
 30
0.0
 11
-3.75287697840031
 21
136.1218078096819
 31
0.0
  0
LINE
  5
1F9
330
1F
100
AcDbEntity
  8
0
  6
DOTTED
 62
     7
100
AcDbLine
 10
-3.44074494404435
 20
135.8096757753259
 30
0.0
 11
-3.92861290968835
 21
135.3218078096818
 31
0.0
  0
LINE
  5
1FA
330
1F
100
AcDbEntity
  8
0
  6
DOTTED
 62
     7
100
AcDbLine
 10
-3.57861290968845
 20
133.3718078096819
 30
0.0
 11
-3.92861290968835
 21
133.0218078096818
 31
0.0
  0
LINE
  5
1FB
330
1F
100
AcDbEntity
  8
0
  6
DOTTED
 62
     7
100
AcDbLine
 10
0.6213870903116
 20
133.3718078096819
 30
0.0
 11
0.27138709031169
 21
133.0218078096818
 31
0.0
  0
LINE
  5
1FC
330
1F
100
AcDbEntity
  8
0
  6
CONTINUOUS
 62
     7
100
AcDbLine
 10
-10.10826609950141
 20
125.0218078096818
 30
0.0
 11
1.29638801914257
 21
125.0218078096818
 31
0.0
  0
LINE
  5
1FD
330
1F
100
AcDbEntity
  8
0
  6
CONTINUOUS
 62
     7
100
AcDbLine
 10
-10.10826609950141
 20
125.0218078096818
 30
0.0
 11
-11.4568050601124
 21
125.0218078096818
 31
0.0
  0
LINE
  5
1FE
330
1F
100
AcDbEntity
  8
0
  6
CONTINUOUS
 62
     7
100
AcDbLine
 10
7.07765464780664
 20
125.0218078096818
 30
0.0
 11
10.59638755282754
 21
125.0218078096818
 31
0.0
  0
LINE
  5
1FF
330
1F
100
AcDbEntity
  8
0
  6
CONTINUOUS
 62
     7
100
AcDbLine
 10
2.79638801914257
 20
125.0218078096818
 30
0.0
 11
6.01699447602664
 21
125.0218078096818
 31
0.0
  0
LINE
  5
200
330
1F
100
AcDbEntity
  8
0
  6
CONTINUOUS
 62
     7
100
AcDbLine
 10
6.01699447602664
 20
125.0218078096818
 30
0.0
 11
7.07765464780664
 21
125.0218078096818
 31
0.0
  0
LINE
  5
201
330
1F
100
AcDbEntity
  8
0
  6
CONTINUOUS
 62
     7
100
AcDbLine
 10
10.59638755282754
 20
125.0218078096818
 30
0.0
 11
10.89997739131468
 21
125.0218078096818
 31
0.0
  0
LINE
  5
202
330
1F
100
AcDbEntity
  8
0
  6
CONTINUOUS
 62
     7
100
AcDbLine
 10
1.29638801914257
 20
125.0218078096818
 30
0.0
 11
2.79638801914257
 21
125.0218078096818
 31
0.0
  0
LINE
  5
203
330
1F
100
AcDbEntity
  8
0
  6
CONTINUOUS
 62
     7
100
AcDbLine
 10
-13.48946957563044
 20
125.0218078096818
 30
0.0
 11
-11.60361241848432
 21
125.0218078096818
 31
0.0
  0
LINE
  5
204
330
1F
100
AcDbEntity
  8
0
  6
CONTINUOUS
 62
     7
100
AcDbLine
 10
-11.60361241848432
 20
125.0218078096818
 30
0.0
 11
-11.4568050601124
 21
125.0218078096818
 31
0.0
  0
LINE
  5
205
330
1F
100
AcDbEntity
  8
0
  6
CONTINUOUS
 62
     7
100
AcDbLine
 10
53.60638758151572
 20
36.98498171020685
 30
0.0
 11
53.60638758151572
 21
37.40967687748639
 31
0.0
  0
LINE
  5
206
330
1F
100
AcDbEntity
  8
0
  6
CONTINUOUS
 62
     7
100
AcDbLine
 10
53.60638758151572
 20
38.38498171020683
 30
0.0
 11
53.60638758151572
 21
38.68498171020679
 31
0.0
  0
LINE
  5
207
330
1F
100
AcDbEntity
  8
0
  6
CONTINUOUS
 62
     7
100
AcDbLine
 10
53.60638758151572
 20
41.48498171020685
 30
0.0
 11
53.60638758151572
 21
41.65019910151113
 31
0.0
  0
LINE
  5
208
330
1F
100
AcDbEntity
  8
0
  6
CONTINUOUS
 62
     7
100
AcDbLine
 10
53.60638758151572
 20
37.40967687748639
 30
0.0
 11
53.60638758151572
 21
38.38498171020683
 31
0.0
  0
LINE
  5
209
330
1F
100
AcDbEntity
  8
0
  6
CONTINUOUS
 62
     7
100
AcDbLine
 10
53.60638758151572
 20
38.68498171020679
 30
0.0
 11
53.60638758151572
 21
41.48498171020685
 31
0.0
  0
LINE
  5
20A
330
1F
100
AcDbEntity
  8
0
  6
CONTINUOUS
 62
     7
100
AcDbLine
 10
53.60638758151572
 20
43.08498171020676
 30
0.0
 11
53.60638758151572
 21
43.28498171020681
 31
0.0
  0
LINE
  5
20B
330
1F
100
AcDbEntity
  8
0
  6
CONTINUOUS
 62
     7
100
AcDbLine
 10
53.60638758151572
 20
43.28498171020681
 30
0.0
 11
53.60638758151572
 21
44.5652370128314
 31
0.0
  0
LINE
  5
20C
330
1F
100
AcDbEntity
  8
0
  6
CONTINUOUS
 62
     7
100
AcDbLine
 10
53.60638758151572
 20
42.98498171020685
 30
0.0
 11
53.60638758151572
 21
43.08498171020676
 31
0.0
  0
LINE
  5
20D
330
1F
100
AcDbEntity
  8
0
  6
CONTINUOUS
 62
     7
100
AcDbLine
 10
53.60638758151572
 20
41.65019910151113
 30
0.0
 11
53.60638758151572
 21
42.98498171020685
 31
0.0
  0
LINE
  5
20E
330
1F
100
AcDbEntity
  8
0
  6
CONTINUOUS
 62
     7
100
AcDbLine
 10
54.70638758151563
 20
37.26498171020683
 30
0.0
 11
54.70638758151563
 21
37.28498171020692
 31
0.0
  0
LINE
  5
20F
330
1F
100
AcDbEntity
  8
0
  6
CONTINUOUS
 62
     7
100
AcDbLine
 10
54.70638758151563
 20
37.28498171020692
 30
0.0
 11
54.70638758151563
 21
37.60766677621859
 31
0.0
  0
LINE
  5
210
330
1F
100
AcDbEntity
  8
0
  6
CONTINUOUS
 62
     7
100
AcDbLine
 10
54.70638758151563
 20
38.72369138762622
 30
0.0
 11
54.70638758151563
 21
38.91340847035224
 31
0.0
  0
LINE
  5
211
330
1F
100
AcDbEntity
  8
0
  6
CONTINUOUS
 62
     7
100
AcDbLine
 10
54.70638758151563
 20
37.60766677621859
 30
0.0
 11
54.70638758151563
 21
37.70967687748623
 31
0.0
  0
LINE
  5
212
330
1F
100
AcDbEntity
  8
0
  6
CONTINUOUS
 62
     7
100
AcDbLine
 10
54.70638758151563
 20
37.70967687748623
 30
0.0
 11
54.70638758151563
 21
38.72369138762622
 31
0.0
  0
LINE
  5
213
330
1F
100
AcDbEntity
  8
0
  6
CONTINUOUS
 62
     7
100
AcDbLine
 10
69.50638758151558
 20
43.05604915747153
 30
0.0
 11
69.50638758151558
 21
42.28498171020681
 31
0.0
  0
LINE
  5
214
330
1F
100
AcDbEntity
  8
0
  6
CONTINUOUS
 62
     7
100
AcDbLine
 10
69.50638758151558
 20
42.28498171020681
 30
0.0
 11
69.50638758151558
 21
40.32762203272534
 31
0.0
  0
LINE
  5
215
330
1F
100
AcDbEntity
  8
0
  6
CONTINUOUS
 62
     7
100
AcDbLine
 10
70.60638758151572
 20
36.98498171020685
 30
0.0
 11
70.60638758151572
 21
37.40967687748639
 31
0.0
  0
LINE
  5
216
330
1F
100
AcDbEntity
  8
0
  6
CONTINUOUS
 62
     7
100
AcDbLine
 10
70.60638758151572
 20
38.68498171020679
 30
0.0
 11
70.60638758151572
 21
38.38498171020683
 31
0.0
  0
LINE
  5
217
330
1F
100
AcDbEntity
  8
0
  6
CONTINUOUS
 62
     7
100
AcDbLine
 10
70.60638758151572
 20
38.38498171020683
 30
0.0
 11
70.60638758151572
 21
37.40967687748639
 31
0.0
  0
LINE
  5
218
330
1F
100
AcDbEntity
  8
0
  6
CONTINUOUS
 62
     7
100
AcDbLine
 10
70.60638758151572
 20
42.98498171020685
 30
0.0
 11
70.60638758151572
 21
41.48498171020685
 31
0.0
  0
LINE
  5
219
330
1F
100
AcDbEntity
  8
0
  6
CONTINUOUS
 62
     7
100
AcDbLine
 10
70.60638758151572
 20
44.5652370128314
 30
0.0
 11
70.60638758151572
 21
42.98498171020685
 31
0.0
  0
LINE
  5
21A
330
1F
100
AcDbEntity
  8
0
  6
CONTINUOUS
 62
     7
100
AcDbLine
 10
70.60638758151572
 20
41.48498171020685
 30
0.0
 11
70.60638758151572
 21
38.68498171020679
 31
0.0
  0
LINE
  5
21B
330
1F
100
AcDbEntity
  8
0
  6
CONTINUOUS
 62
     7
100
AcDbLine
 10
55.50638758151558
 20
37.56990566283514
 30
0.0
 11
55.50638758151558
 21
37.28706295036056
 31
0.0
  0
LINE
  5
21C
330
1F
100
AcDbEntity
  8
0
  6
CONTINUOUS
 62
     7
100
AcDbLine
 10
57.90638758151567
 20
37.56990566283514
 30
0.0
 11
57.90638758151567
 21
37.28706295036056
 31
0.0
  0
LINE
  5
21D
330
1F
100
AcDbEntity
  8
0
  6
CONTINUOUS
 62
     7
100
AcDbLine
 10
68.70638758151563
 20
41.67112499371717
 30
0.0
 11
68.70638758151563
 21
41.3882822812426
 31
0.0
  0
LINE
  5
21E
330
1F
100
AcDbEntity
  8
0
  6
CONTINUOUS
 62
     7
100
AcDbLine
 10
66.30638758151554
 20
41.67112499371717
 30
0.0
 11
66.30638758151554
 21
41.3882822812426
 31
0.0
  0
LINE
  5
21F
330
1F
100
AcDbEntity
  8
0
  6
CONTINUOUS
 62
     7
100
AcDbLine
 10
67.40638758151567
 20
39.54980457342015
 30
0.0
 11
68.52354486904164
 21
39.54980457342015
 31
0.0
  0
LINE
  5
220
330
1F
100
AcDbEntity
  8
0
  6
CONTINUOUS
 62
     7
100
AcDbLine
 10
65.30638758151554
 20
42.87320644499698
 30
0.0
 11
65.30638758151554
 21
41.96609966381038
 31
0.0
  0
LINE
  5
221
330
1F
100
AcDbEntity
  8
0
  6
CONTINUOUS
 62
     7
100
AcDbLine
 10
65.30638758151554
 20
41.8246783075731
 30
0.0
 11
65.30638758151554
 21
41.52970356074252
 31
0.0
  0
LINE
  5
222
330
1F
100
AcDbEntity
  8
0
  6
CONTINUOUS
 62
     7
100
AcDbLine
 10
65.30638758151554
 20
41.52970356074252
 30
0.0
 11
65.30638758151554
 21
41.0347288139119
 31
0.0
  0
LINE
  5
223
330
1F
100
AcDbEntity
  8
0
  6
CONTINUOUS
 62
     7
100
AcDbLine
 10
65.35638758151572
 20
38.98411914847088
 30
0.0
 11
65.35638758151572
 21
38.63056575787766
 31
0.0
  0
LINE
  5
224
330
1F
100
AcDbEntity
  8
0
  6
CONTINUOUS
 62
     7
100
AcDbLine
 10
68.52354486904164
 20
36.14355998936878
 30
0.0
 11
68.52354486904164
 21
39.54980457342015
 31
0.0
  0
LINE
  5
225
330
1F
100
AcDbEntity
  8
0
  6
CONTINUOUS
 62
     7
100
AcDbLine
 10
65.30638758151554
 20
41.8246783075731
 30
0.0
 11
65.30638758151554
 21
41.96609966381038
 31
0.0
  0
LINE
  5
226
330
1F
100
AcDbEntity
  8
0
  6
CONTINUOUS
 62
     7
100
AcDbLine
 10
64.35638758151572
 20
38.41843372352162
 30
0.0
 11
64.35638758151572
 21
31.26305120617428
 31
0.0
  0
LINE
  5
227
330
1F
100
AcDbEntity
  8
0
  6
CONTINUOUS
 62
     7
100
AcDbLine
 10
68.52354486904164
 20
36.14355998936878
 30
0.0
 11
68.52354486904164
 21
36.08498134560603
 31
0.0
  0
LINE
  5
228
330
1F
100
AcDbEntity
  8
0
  6
CONTINUOUS
 62
     7
100
AcDbLine
 10
64.35638758151572
 20
36.08498134560603
 30
0.0
 11
68.52354486904164
 21
36.08498134560603
 31
0.0
  0
LINE
  5
229
330
1F
100
AcDbEntity
  8
0
  6
CONTINUOUS
 62
     7
100
AcDbLine
 10
65.50638758151558
 20
43.15604915747156
 30
0.0
 11
69.36496622527875
 21
43.15604915747156
 31
0.0
  0
LINE
  5
22A
330
1F
100
AcDbEntity
  8
0
  6
CONTINUOUS
 62
     7
100
AcDbLine
 10
65.50638758151558
 20
43.15604915747156
 30
0.0
 11
65.50638758151558
 21
41.67112491697981
 31
0.0
  0
LINE
  5
22B
330
1F
100
AcDbEntity
  8
0
  6
CONTINUOUS
 62
     7
100
AcDbLine
 10
58.90638758151567
 20
36.14355998936878
 30
0.0
 11
59.85638758151572
 21
36.14355998936878
 31
0.0
  0
LINE
  5
22C
330
1F
100
AcDbEntity
  8
0
  6
CONTINUOUS
 62
     7
100
AcDbLine
 10
59.85638758151572
 20
38.41843372352162
 30
0.0
 11
59.85638758151572
 21
31.26305120617428
 31
0.0
  0
LINE
  5
22D
330
1F
100
AcDbEntity
  8
0
  6
CONTINUOUS
 62
     7
100
AcDbLine
 10
58.90638758151567
 20
36.14355998936878
 30
0.0
 11
58.90638758151567
 21
36.08498134560603
 31
0.0
  0
LINE
  5
22E
330
1F
100
AcDbEntity
  8
0
  6
CONTINUOUS
 62
     7
100
AcDbLine
 10
58.70638758151563
 20
36.08498134560603
 30
0.0
 11
58.70638758151563
 21
37.56595614902631
 31
0.0
  0
LINE
  5
22F
330
1F
100
AcDbEntity
  8
0
  6
CONTINUOUS
 62
     7
100
AcDbLine
 10
58.70638758151563
 20
36.08498134560603
 30
0.0
 11
58.90638758151567
 21
36.08498134560603
 31
0.0
  0
LINE
  5
230
330
1F
100
AcDbEntity
  8
0
  6
CONTINUOUS
 62
     7
100
AcDbLine
 10
58.90638758151567
 20
36.08498134560603
 30
0.0
 11
59.85638758151572
 21
36.08498134560603
 31
0.0
  0
LINE
  5
231
330
1F
100
AcDbEntity
  8
0
  6
CONTINUOUS
 62
     7
100
AcDbLine
 10
58.70638758151563
 20
36.08498134560603
 30
0.0
 11
54.84780893775269
 21
36.08498134560603
 31
0.0
  0
LINE
  5
232
330
1F
100
AcDbEntity
  8
0
  6
CONTINUOUS
 62
     7
100
AcDbLine
 10
58.90638758151567
 20
36.14355998936878
 30
0.0
 11
58.90638758151567
 21
36.93350948302998
 31
0.0
  0
LINE
  5
233
330
1F
100
AcDbEntity
  8
0
  6
CONTINUOUS
 62
     7
100
AcDbLine
 10
56.70638758151563
 20
38.4184338002591
 30
0.0
 11
55.6892302939907
 21
38.41843372352173
 31
0.0
  0
LINE
  5
234
330
1F
100
AcDbEntity
  8
0
  6
CONTINUOUS
 62
     7
100
AcDbLine
 10
68.52354486904164
 20
36.08498134560603
 30
0.0
 11
70.00953818214975
 21
36.08498134560603
 31
0.0
  0
LINE
  5
235
330
1F
100
AcDbEntity
  8
0
  6
CONTINUOUS
 62
     7
100
AcDbLine
 10
70.20638758151563
 20
43.86315593865811
 30
0.0
 11
70.20638758151563
 21
44.14599852070148
 31
0.0
  0
LINE
  5
236
330
1F
100
AcDbEntity
  8
0
  6
CONTINUOUS
 62
     7
100
AcDbLine
 10
70.20638758151563
 20
36.36782405808071
 30
0.0
 11
70.20638758151563
 21
43.86315593865811
 31
0.0
  0
LINE
  5
237
330
1F
100
AcDbEntity
  8
0
  6
CONTINUOUS
 62
     7
100
AcDbLine
 10
69.50638758151558
 20
43.05604915747153
 30
0.0
 11
69.50638758151558
 21
42.28498171020681
 31
0.0
  0
LINE
  5
238
330
1F
100
AcDbEntity
  8
0
  6
CONTINUOUS
 62
     7
100
AcDbLine
 10
69.50638758151558
 20
42.28498171020681
 30
0.0
 11
69.50638758151558
 21
40.32762203272534
 31
0.0
  0
LINE
  5
239
330
1F
100
AcDbEntity
  8
0
  6
CONTINUOUS
 62
     7
100
AcDbLine
 10
69.50638758151558
 20
43.05604915747153
 30
0.0
 11
70.15095953838659
 21
43.96761156080413
 31
0.0
  0
LINE
  5
23A
330
1F
100
AcDbEntity
  8
0
  6
CONTINUOUS
 62
     7
100
AcDbLine
 10
67.40638758151567
 20
40.32762203272534
 30
0.0
 11
69.50638758151558
 21
40.32762203272534
 31
0.0
  0
LINE
  5
23B
330
1F
100
AcDbEntity
  8
0
  6
CONTINUOUS
 62
     7
100
AcDbLine
 10
67.40638758151567
 20
40.04477932025077
 30
0.0
 11
69.30638758151554
 21
40.04477932025077
 31
0.0
  0
LINE
  5
23C
330
1F
100
AcDbEntity
  8
0
  6
CONTINUOUS
 62
     7
100
AcDbLine
 10
68.6649662252787
 20
39.59122592965741
 30
0.0
 11
69.30638758151554
 21
40.04477932025077
 31
0.0
  0
LINE
  5
23D
330
1F
100
AcDbEntity
  8
0
  6
CONTINUOUS
 62
     7
100
AcDbLine
 10
68.6649662252787
 20
36.18498134560593
 30
0.0
 11
70.15095953838659
 21
36.18498134560593
 31
0.0
  0
LINE
  5
23E
330
1F
100
AcDbEntity
  8
0
  6
CONTINUOUS
 62
     7
100
AcDbLine
 10
69.36496622527875
 20
43.15604915747156
 30
0.0
 11
70.00953818214975
 21
44.06761156080404
 31
0.0
  0
LINE
  5
23F
330
1F
100
AcDbEntity
  8
0
  6
CONTINUOUS
 62
     7
100
AcDbLine
 10
69.80638758151554
 20
44.14599865113269
 30
0.0
 11
54.40638758151567
 21
44.14599865113269
 31
0.0
  0
LINE
  5
240
330
1F
100
AcDbEntity
  8
0
  6
CONTINUOUS
 62
     7
100
AcDbLine
 10
54.40638758151567
 20
44.14599865113269
 30
0.0
 11
54.40638758151567
 21
44.42884123317629
 31
0.0
  0
LINE
  5
241
330
1F
100
AcDbEntity
  8
0
  6
CONTINUOUS
 62
     7
100
AcDbLine
 10
69.80638758151554
 20
44.42884123317629
 30
0.0
 11
54.40638758151567
 21
44.42884123317629
 31
0.0
  0
LINE
  5
242
330
1F
100
AcDbEntity
  8
0
  6
CONTINUOUS
 62
     7
100
AcDbLine
 10
69.80638758151554
 20
44.14599865113269
 30
0.0
 11
69.80638758151554
 21
44.42884123317629
 31
0.0
  0
LINE
  5
243
330
1F
100
AcDbEntity
  8
0
  6
CONTINUOUS
 62
     7
100
AcDbLine
 10
56.80638758151554
 20
38.41843372352173
 30
0.0
 11
56.70638758151563
 21
38.4184338002591
 31
0.0
  0
LINE
  5
244
330
1F
100
AcDbEntity
  8
0
  6
CONTINUOUS
 62
     7
100
AcDbLine
 10
54.20323698088168
 20
36.08498134560603
 30
0.0
 11
54.84780893775269
 21
36.08498134560603
 31
0.0
  0
LINE
  5
245
330
1F
100
AcDbEntity
  8
0
  6
CONTINUOUS
 62
     7
100
AcDbLine
 10
54.70638758151563
 20
36.18498134560593
 30
0.0
 11
54.70638758151563
 21
37.26498171020683
 31
0.0
  0
LINE
  5
246
330
1F
100
AcDbEntity
  8
0
  6
CONTINUOUS
 62
     7
100
AcDbLine
 10
54.06181562464462
 20
36.18498134560593
 30
0.0
 11
54.70638758151563
 21
36.18498134560593
 31
0.0
  0
LINE
  5
247
330
1F
100
AcDbEntity
  8
0
  6
CONTINUOUS
 62
     7
100
AcDbLine
 10
54.70638758151563
 20
37.26498171020683
 30
0.0
 11
54.70638758151563
 21
37.28498171020692
 31
0.0
  0
LINE
  5
248
330
1F
100
AcDbEntity
  8
0
  6
CONTINUOUS
 62
     7
100
AcDbLine
 10
54.70638758151563
 20
37.28498171020692
 30
0.0
 11
54.70638758151563
 21
37.60766677621859
 31
0.0
  0
LINE
  5
249
330
1F
100
AcDbEntity
  8
0
  6
CONTINUOUS
 62
     7
100
AcDbLine
 10
54.00638758151558
 20
43.86315593865811
 30
0.0
 11
54.00638758151558
 21
36.36782405808071
 31
0.0
  0
LINE
  5
24A
330
1F
100
AcDbEntity
  8
0
  6
CONTINUOUS
 62
     7
100
AcDbLine
 10
54.00638758151558
 20
43.86315593865811
 30
0.0
 11
54.00638758151558
 21
44.1459985207016
 31
0.0
  0
LINE
  5
24B
330
1F
100
AcDbEntity
  8
0
  6
CONTINUOUS
 62
     7
100
AcDbLine
 10
55.6892302939907
 20
41.8246783075731
 30
0.0
 11
55.6892302939907
 21
38.41843372352173
 31
0.0
  0
LINE
  5
24C
330
1F
100
AcDbEntity
  8
0
  6
CONTINUOUS
 62
     7
100
AcDbLine
 10
54.70638758151563
 20
38.72369138762622
 30
0.0
 11
54.70638758151563
 21
38.91340847035224
 31
0.0
  0
LINE
  5
24D
330
1F
100
AcDbEntity
  8
0
  6
CONTINUOUS
 62
     7
100
AcDbLine
 10
54.70638758151563
 20
37.60766677621859
 30
0.0
 11
54.70638758151563
 21
37.70967687748623
 31
0.0
  0
LINE
  5
24E
330
1F
100
AcDbEntity
  8
0
  6
CONTINUOUS
 62
     7
100
AcDbLine
 10
54.70638758151563
 20
37.70967687748623
 30
0.0
 11
54.70638758151563
 21
38.72369138762622
 31
0.0
  0
LINE
  5
24F
330
1F
100
AcDbEntity
  8
0
  6
CONTINUOUS
 62
     7
100
AcDbLine
 10
55.54780893775273
 20
41.86609966381036
 30
0.0
 11
54.06181562464462
 21
43.96761156080413
 31
0.0
  0
LINE
  5
250
330
1F
100
AcDbEntity
  8
0
  6
CONTINUOUS
 62
     7
100
AcDbLine
 10
58.85638758151572
 20
38.98411914847088
 30
0.0
 11
58.85638758151572
 21
38.63056575787766
 31
0.0
  0
LINE
  5
251
330
1F
100
AcDbEntity
  8
0
  6
CONTINUOUS
 62
     7
100
AcDbLine
 10
55.54780893775273
 20
38.459855079759
 30
0.0
 11
54.90638758151567
 21
38.91340847035224
 31
0.0
  0
LINE
  5
252
330
1F
100
AcDbEntity
  8
0
  6
CONTINUOUS
 62
     7
100
AcDbLine
 10
54.90638758151567
 20
38.91340847035224
 30
0.0
 11
54.70638758151563
 21
38.91340847035224
 31
0.0
  0
LINE
  5
253
330
1F
100
AcDbEntity
  8
0
  6
CONTINUOUS
 62
     7
100
AcDbLine
 10
65.30638758151554
 20
41.8246783075731
 30
0.0
 11
55.6892302939907
 21
41.8246783075731
 31
0.0
  0
LINE
  5
254
330
1F
100
AcDbEntity
  8
0
  6
CONTINUOUS
 62
     7
100
AcDbLine
 10
64.35638758151572
 20
36.08498134560603
 30
0.0
 11
68.52354486904164
 21
36.08498134560603
 31
0.0
  0
LINE
  5
255
330
1F
100
AcDbEntity
  8
0
  6
CONTINUOUS
 62
     7
100
AcDbLine
 10
53.60638758151572
 20
36.98498171020685
 30
0.0
 11
53.60638758151572
 21
36.23142831961366
 31
0.0
  0
LINE
  5
256
330
1F
100
AcDbEntity
  8
0
  6
CONTINUOUS
 62
     7
100
AcDbLine
 10
53.60638758151572
 20
36.23142831961366
 30
0.0
 11
54.03962929061868
 21
36.23142831961366
 31
0.0
  0
LINE
  5
257
330
1F
100
AcDbEntity
  8
0
  6
CONTINUOUS
 62
     7
100
AcDbLine
 10
58.70638758151563
 20
36.08498134560603
 30
0.0
 11
58.90638758151567
 21
36.08498134560603
 31
0.0
  0
LINE
  5
258
330
1F
100
AcDbEntity
  8
0
  6
CONTINUOUS
 62
     7
100
AcDbLine
 10
58.90638758151567
 20
36.08498134560603
 30
0.0
 11
59.85638758151572
 21
36.08498134560603
 31
0.0
  0
LINE
  5
259
330
1F
100
AcDbEntity
  8
0
  6
CONTINUOUS
 62
     7
100
AcDbLine
 10
58.70638758151563
 20
36.08498134560603
 30
0.0
 11
54.84780893775269
 21
36.08498134560603
 31
0.0
  0
LINE
  5
25A
330
1F
100
AcDbEntity
  8
0
  6
CONTINUOUS
 62
     7
100
AcDbLine
 10
70.60638758151572
 20
36.23142831961366
 30
0.0
 11
70.60638758151572
 21
36.08498171020699
 31
0.0
  0
LINE
  5
25B
330
1F
100
AcDbEntity
  8
0
  6
CONTINUOUS
 62
     7
100
AcDbLine
 10
70.17314587241253
 20
36.23142831961366
 30
0.0
 11
70.60638758151572
 21
36.23142831961366
 31
0.0
  0
LINE
  5
25C
330
1F
100
AcDbEntity
  8
0
  6
CONTINUOUS
 62
     7
100
AcDbLine
 10
70.00953818214975
 20
36.08498134560603
 30
0.0
 11
70.60638758151572
 21
36.08498171020699
 31
0.0
  0
LINE
  5
25D
330
1F
100
AcDbEntity
  8
0
  6
CONTINUOUS
 62
     7
100
AcDbLine
 10
68.52354486904164
 20
36.08498134560603
 30
0.0
 11
70.00953818214975
 21
36.08498134560603
 31
0.0
  0
LINE
  5
25E
330
1F
100
AcDbEntity
  8
0
  6
CONTINUOUS
 62
     7
100
AcDbLine
 10
70.60638758151572
 20
36.98498171020685
 30
0.0
 11
70.60638758151572
 21
36.23142831961366
 31
0.0
  0
LINE
  5
25F
330
1F
100
AcDbEntity
  8
0
  6
CONTINUOUS
 62
     7
100
AcDbLine
 10
70.60638758151572
 20
44.5652370128314
 30
0.0
 11
53.60638758151572
 21
44.5652370128314
 31
0.0
  0
LINE
  5
260
330
1F
100
AcDbEntity
  8
0
  6
CONTINUOUS
 62
     7
100
AcDbLine
 10
54.40638758151567
 20
44.14599865113269
 30
0.0
 11
54.40638758151567
 21
44.42884123317629
 31
0.0
  0
LINE
  5
261
330
1F
100
AcDbEntity
  8
0
  6
CONTINUOUS
 62
     7
100
AcDbLine
 10
70.60638758151572
 20
36.98498171020685
 30
0.0
 11
70.60638758151572
 21
37.40967687748639
 31
0.0
  0
LINE
  5
262
330
1F
100
AcDbEntity
  8
0
  6
CONTINUOUS
 62
     7
100
AcDbLine
 10
69.80638758151554
 20
44.14599865113269
 30
0.0
 11
69.80638758151554
 21
44.42884123317629
 31
0.0
  0
LINE
  5
263
330
1F
100
AcDbEntity
  8
0
  6
CONTINUOUS
 62
     7
100
AcDbLine
 10
70.60638758151572
 20
38.68498171020679
 30
0.0
 11
70.60638758151572
 21
38.38498171020683
 31
0.0
  0
LINE
  5
264
330
1F
100
AcDbEntity
  8
0
  6
CONTINUOUS
 62
     7
100
AcDbLine
 10
70.60638758151572
 20
38.38498171020683
 30
0.0
 11
70.60638758151572
 21
37.40967687748639
 31
0.0
  0
LINE
  5
265
330
1F
100
AcDbEntity
  8
0
  6
CONTINUOUS
 62
     7
100
AcDbLine
 10
70.60638758151572
 20
42.98498171020685
 30
0.0
 11
70.60638758151572
 21
41.48498171020685
 31
0.0
  0
LINE
  5
266
330
1F
100
AcDbEntity
  8
0
  6
CONTINUOUS
 62
     7
100
AcDbLine
 10
70.60638758151572
 20
44.5652370128314
 30
0.0
 11
70.60638758151572
 21
42.98498171020685
 31
0.0
  0
LINE
  5
267
330
1F
100
AcDbEntity
  8
0
  6
CONTINUOUS
 62
     7
100
AcDbLine
 10
70.60638758151572
 20
41.48498171020685
 30
0.0
 11
70.60638758151572
 21
38.68498171020679
 31
0.0
  0
LINE
  5
268
330
1F
100
AcDbEntity
  8
0
  6
CONTINUOUS
 62
     7
100
AcDbLine
 10
53.60638758151572
 20
36.08498171020699
 30
0.0
 11
54.20323698088168
 21
36.08498134560603
 31
0.0
  0
LINE
  5
269
330
1F
100
AcDbEntity
  8
0
  6
CONTINUOUS
 62
     7
100
AcDbLine
 10
53.60638758151572
 20
36.23142831961366
 30
0.0
 11
53.60638758151572
 21
36.08498171020699
 31
0.0
  0
LINE
  5
26A
330
1F
100
AcDbEntity
  8
0
  6
CONTINUOUS
 62
     7
100
AcDbLine
 10
53.60638758151572
 20
36.98498171020685
 30
0.0
 11
53.60638758151572
 21
37.40967687748639
 31
0.0
  0
LINE
  5
26B
330
1F
100
AcDbEntity
  8
0
  6
CONTINUOUS
 62
     7
100
AcDbLine
 10
53.60638758151572
 20
38.38498171020683
 30
0.0
 11
53.60638758151572
 21
38.68498171020679
 31
0.0
  0
LINE
  5
26C
330
1F
100
AcDbEntity
  8
0
  6
CONTINUOUS
 62
     7
100
AcDbLine
 10
53.60638758151572
 20
41.48498171020685
 30
0.0
 11
53.60638758151572
 21
41.65019910151113
 31
0.0
  0
LINE
  5
26D
330
1F
100
AcDbEntity
  8
0
  6
CONTINUOUS
 62
     7
100
AcDbLine
 10
53.60638758151572
 20
37.40967687748639
 30
0.0
 11
53.60638758151572
 21
38.38498171020683
 31
0.0
  0
LINE
  5
26E
330
1F
100
AcDbEntity
  8
0
  6
CONTINUOUS
 62
     7
100
AcDbLine
 10
53.60638758151572
 20
38.68498171020679
 30
0.0
 11
53.60638758151572
 21
41.48498171020685
 31
0.0
  0
LINE
  5
26F
330
1F
100
AcDbEntity
  8
0
  6
CONTINUOUS
 62
     7
100
AcDbLine
 10
53.60638758151572
 20
43.08498171020676
 30
0.0
 11
53.60638758151572
 21
43.28498171020681
 31
0.0
  0
LINE
  5
270
330
1F
100
AcDbEntity
  8
0
  6
CONTINUOUS
 62
     7
100
AcDbLine
 10
53.60638758151572
 20
43.28498171020681
 30
0.0
 11
53.60638758151572
 21
44.5652370128314
 31
0.0
  0
LINE
  5
271
330
1F
100
AcDbEntity
  8
0
  6
CONTINUOUS
 62
     7
100
AcDbLine
 10
53.60638758151572
 20
42.98498171020685
 30
0.0
 11
53.60638758151572
 21
43.08498171020676
 31
0.0
  0
LINE
  5
272
330
1F
100
AcDbEntity
  8
0
  6
CONTINUOUS
 62
     7
100
AcDbLine
 10
53.60638758151572
 20
41.65019910151113
 30
0.0
 11
53.60638758151572
 21
42.98498171020685
 31
0.0
  0
LINE
  5
273
330
1F
100
AcDbEntity
  8
0
  6
CONTINUOUS
 62
     7
100
AcDbLine
 10
54.20323698088168
 20
36.08498134560603
 30
0.0
 11
54.84780893775269
 21
36.08498134560603
 31
0.0
  0
LINE
  5
274
330
1F
100
AcDbEntity
  8
0
  6
CONTINUOUS
 62
     7
100
AcDbLine
 10
-68.89361241848428
 20
77.68498134560582
 30
0.0
 11
-68.89361241848428
 21
77.13498134560439
 31
0.0
  0
LINE
  5
275
330
1F
100
AcDbEntity
  8
0
  6
CONTINUOUS
 62
     7
100
AcDbLine
 10
-68.89361241848428
 20
77.13498134560439
 30
0.0
 11
-68.89361241848428
 21
76.78498134560448
 31
0.0
  0
LINE
  5
276
330
1F
100
AcDbEntity
  8
0
  6
CONTINUOUS
 62
     7
100
AcDbLine
 10
-68.89361241848428
 20
75.0849813456058
 30
0.0
 11
-68.89361241848428
 21
74.98498134560589
 31
0.0
  0
LINE
  5
277
330
1F
100
AcDbEntity
  8
0
  6
CONTINUOUS
 62
     7
100
AcDbLine
 10
-68.89361241848428
 20
41.38498134560575
 30
0.0
 11
-68.89361241848428
 21
41.58498134560568
 31
0.0
  0
LINE
  5
278
330
1F
100
AcDbEntity
  8
0
  6
CONTINUOUS
 62
     7
100
AcDbLine
 10
-68.89361241848428
 20
42.98498134560566
 30
0.0
 11
-68.89361241848428
 21
41.58498134560568
 31
0.0
  0
LINE
  5
279
330
1F
100
AcDbEntity
  8
0
  6
CONTINUOUS
 62
     7
100
AcDbLine
 10
-68.89361241848428
 20
38.68498134560582
 30
0.0
 11
-68.89361241848428
 21
41.38498134560575
 31
0.0
  0
LINE
  5
27A
330
1F
100
AcDbEntity
  8
0
  6
CONTINUOUS
 62
     7
100
AcDbLine
 10
-68.89361241848428
 20
53.13498134560575
 30
0.0
 11
-68.89361241848428
 21
52.78498134560573
 31
0.0
  0
LINE
  5
27B
330
1F
100
AcDbEntity
  8
0
  6
CONTINUOUS
 62
     7
100
AcDbLine
 10
-68.89361241848428
 20
57.78498134560573
 30
0.0
 11
-68.89361241848428
 21
57.43498134560571
 31
0.0
  0
LINE
  5
27C
330
1F
100
AcDbEntity
  8
0
  6
CONTINUOUS
 62
     7
100
AcDbLine
 10
-68.89361241848428
 20
57.43498134560571
 30
0.0
 11
-68.89361241848428
 21
53.13498134560575
 31
0.0
  0
LINE
  5
27D
330
1F
100
AcDbEntity
  8
0
  6
CONTINUOUS
 62
     7
100
AcDbLine
 10
-68.89361241848428
 20
44.7037142793148
 30
0.0
 11
-68.89361241848428
 21
42.98498134560566
 31
0.0
  0
LINE
  5
27E
330
1F
100
AcDbEntity
  8
0
  6
CONTINUOUS
 62
     7
100
AcDbLine
 10
-68.89361241848428
 20
45.76437445109457
 30
0.0
 11
-68.89361241848428
 21
44.7037142793148
 31
0.0
  0
LINE
  5
27F
330
1F
100
AcDbEntity
  8
0
  6
CONTINUOUS
 62
     7
100
AcDbLine
 10
-68.89361241848428
 20
73.5849813456058
 30
0.0
 11
-68.89361241848428
 21
63.18498134560582
 31
0.0
  0
LINE
  5
280
330
1F
100
AcDbEntity
  8
0
  6
CONTINUOUS
 62
     7
100
AcDbLine
 10
-68.89361241848428
 20
63.18498134560582
 30
0.0
 11
-68.89361241848428
 21
57.78498134560573
 31
0.0
  0
LINE
  5
281
330
1F
100
AcDbEntity
  8
0
  6
CONTINUOUS
 62
     7
100
AcDbLine
 10
-68.89361241848428
 20
52.78498134560573
 30
0.0
 11
-68.89361241848428
 21
45.76437445109457
 31
0.0
  0
LINE
  5
282
330
1F
100
AcDbEntity
  8
0
  6
CONTINUOUS
 62
     7
100
AcDbLine
 10
-68.89361241848428
 20
76.78498134560448
 30
0.0
 11
-68.89361241848428
 21
75.0849813456058
 31
0.0
  0
LINE
  5
283
330
1F
100
AcDbEntity
  8
0
  6
CONTINUOUS
 62
     7
100
AcDbLine
 10
-68.89361241848428
 20
74.98498134560589
 30
0.0
 11
-68.89361241848428
 21
73.5849813456058
 31
0.0
  0
LINE
  5
284
330
1F
100
AcDbEntity
  8
0
  6
CONTINUOUS
 62
     7
100
AcDbLine
 10
-51.89361241848428
 20
76.78498134560448
 30
0.0
 11
-51.89361241848428
 21
75.0849813456058
 31
0.0
  0
LINE
  5
285
330
1F
100
AcDbEntity
  8
0
  6
CONTINUOUS
 62
     7
100
AcDbLine
 10
-51.89361241848428
 20
77.13498134560439
 30
0.0
 11
-51.89361241848428
 21
76.78498134560448
 31
0.0
  0
LINE
  5
286
330
1F
100
AcDbEntity
  8
0
  6
CONTINUOUS
 62
     7
100
AcDbLine
 10
-51.89361241848428
 20
45.76437445109514
 30
0.0
 11
-51.89361241848428
 21
44.70371427931502
 31
0.0
  0
LINE
  5
287
330
1F
100
AcDbEntity
  8
0
  6
CONTINUOUS
 62
     7
100
AcDbLine
 10
-51.89361241848428
 20
42.98498134560566
 30
0.0
 11
-51.89361241848428
 21
41.58498134560568
 31
0.0
  0
LINE
  5
288
330
1F
100
AcDbEntity
  8
0
  6
CONTINUOUS
 62
     7
100
AcDbLine
 10
-51.89361241848428
 20
44.70371427931502
 30
0.0
 11
-51.89361241848428
 21
42.98498134560566
 31
0.0
  0
LINE
  5
289
330
1F
100
AcDbEntity
  8
0
  6
CONTINUOUS
 62
     7
100
AcDbLine
 10
-51.89361241848428
 20
73.5849813456058
 30
0.0
 11
-51.89361241848428
 21
63.18498134560582
 31
0.0
  0
LINE
  5
28A
330
1F
100
AcDbEntity
  8
0
  6
CONTINUOUS
 62
     7
100
AcDbLine
 10
-51.89361241848428
 20
77.68498134560582
 30
0.0
 11
-51.89361241848428
 21
77.13498134560439
 31
0.0
  0
LINE
  5
28B
330
1F
100
AcDbEntity
  8
0
  6
CONTINUOUS
 62
     7
100
AcDbLine
 10
-51.89361241848428
 20
75.0849813456058
 30
0.0
 11
-51.89361241848428
 21
74.98498134560589
 31
0.0
  0
LINE
  5
28C
330
1F
100
AcDbEntity
  8
0
  6
CONTINUOUS
 62
     7
100
AcDbLine
 10
-51.89361241848428
 20
53.13498134560575
 30
0.0
 11
-51.89361241848428
 21
52.78498134560573
 31
0.0
  0
LINE
  5
28D
330
1F
100
AcDbEntity
  8
0
  6
CONTINUOUS
 62
     7
100
AcDbLine
 10
-51.89361241848428
 20
57.78498134560573
 30
0.0
 11
-51.89361241848428
 21
57.43498134560571
 31
0.0
  0
LINE
  5
28E
330
1F
100
AcDbEntity
  8
0
  6
CONTINUOUS
 62
     7
100
AcDbLine
 10
-51.89361241848428
 20
57.43498134560571
 30
0.0
 11
-51.89361241848428
 21
53.13498134560575
 31
0.0
  0
LINE
  5
28F
330
1F
100
AcDbEntity
  8
0
  6
CONTINUOUS
 62
     7
100
AcDbLine
 10
-51.89361241848428
 20
52.78498134560573
 30
0.0
 11
-51.89361241848428
 21
45.76437445109514
 31
0.0
  0
LINE
  5
290
330
1F
100
AcDbEntity
  8
0
  6
CONTINUOUS
 62
     7
100
AcDbLine
 10
-51.89361241848428
 20
41.38498134560552
 30
0.0
 11
-51.89361241848428
 21
41.58498134560568
 31
0.0
  0
LINE
  5
291
330
1F
100
AcDbEntity
  8
0
  6
CONTINUOUS
 62
     7
100
AcDbLine
 10
-51.89361241848428
 20
38.68498134560582
 30
0.0
 11
-51.89361241848428
 21
41.38498134560552
 31
0.0
  0
LINE
  5
292
330
1F
100
AcDbEntity
  8
0
  6
CONTINUOUS
 62
     7
100
AcDbLine
 10
-51.89361241848428
 20
63.18498134560582
 30
0.0
 11
-51.89361241848428
 21
57.78498134560573
 31
0.0
  0
LINE
  5
293
330
1F
100
AcDbEntity
  8
0
  6
CONTINUOUS
 62
     7
100
AcDbLine
 10
-51.89361241848428
 20
74.98498134560589
 30
0.0
 11
-51.89361241848428
 21
73.5849813456058
 31
0.0
  0
LINE
  5
294
330
1F
100
AcDbEntity
  8
0
  6
CONTINUOUS
 62
     7
100
AcDbLine
 10
-51.69361241848446
 20
41.38498134560552
 30
0.0
 11
-51.69361241848446
 21
36.08498134560591
 31
0.0
  0
LINE
  5
295
330
1F
100
AcDbEntity
  8
0
  6
CONTINUOUS
 62
     7
100
AcDbLine
 10
-69.09361241848433
 20
36.08498134560591
 30
0.0
 11
-51.69361241848446
 21
36.08498134560591
 31
0.0
  0
LINE
  5
296
330
1F
100
AcDbEntity
  8
0
  6
CONTINUOUS
 62
     7
100
AcDbLine
 10
-51.69361241848446
 20
75.0849813456058
 30
0.0
 11
-51.69361241848446
 21
80.48498134560589
 31
0.0
  0
LINE
  5
297
330
1F
100
AcDbEntity
  8
0
  6
CONTINUOUS
 62
     7
100
AcDbLine
 10
-51.69361241848446
 20
75.0849813456058
 30
0.0
 11
-51.89361241848428
 21
75.0849813456058
 31
0.0
  0
LINE
  5
298
330
1F
100
AcDbEntity
  8
0
  6
CONTINUOUS
 62
     7
100
AcDbLine
 10
-65.54361241848437
 20
76.88498134560575
 30
0.0
 11
-66.89361241848428
 21
76.88498134560575
 31
0.0
  0
LINE
  5
299
330
1F
100
AcDbEntity
  8
0
  6
CONTINUOUS
 62
     7
100
AcDbLine
 10
-51.89361241848428
 20
76.78498134560448
 30
0.0
 11
-51.89361241848428
 21
75.0849813456058
 31
0.0
  0
LINE
  5
29A
330
1F
100
AcDbEntity
  8
0
  6
CONTINUOUS
 62
     7
100
AcDbLine
 10
-51.89361241848428
 20
77.13498134560439
 30
0.0
 11
-51.89361241848428
 21
76.78498134560448
 31
0.0
  0
LINE
  5
29B
330
1F
100
AcDbEntity
  8
0
  6
CONTINUOUS
 62
     7
100
AcDbLine
 10
-54.74361241848442
 20
80.48498134560589
 30
0.0
 11
-51.69361241848446
 21
80.48498134560589
 31
0.0
  0
LINE
  5
29C
330
1F
100
AcDbEntity
  8
0
  6
CONTINUOUS
 62
     7
100
AcDbLine
 10
-69.09361241848433
 20
80.48498134560589
 30
0.0
 11
-69.09361241848433
 21
75.0849813456058
 31
0.0
  0
LINE
  5
29D
330
1F
100
AcDbEntity
  8
0
  6
CONTINUOUS
 62
     7
100
AcDbLine
 10
-69.09361241848433
 20
80.48498134560589
 30
0.0
 11
-66.04361241848437
 21
80.48498134560577
 31
0.0
  0
LINE
  5
29E
330
1F
100
AcDbEntity
  8
0
  6
CONTINUOUS
 62
     7
100
AcDbLine
 10
-68.89361241848428
 20
77.68498134560582
 30
0.0
 11
-68.89361241848428
 21
77.13498134560439
 31
0.0
  0
LINE
  5
29F
330
1F
100
AcDbEntity
  8
0
  6
CONTINUOUS
 62
     7
100
AcDbLine
 10
-65.54361241848437
 20
76.83498134560568
 30
0.0
 11
-65.54361241848437
 21
76.88498134560575
 31
0.0
  0
LINE
  5
2A0
330
1F
100
AcDbEntity
  8
0
  6
CONTINUOUS
 62
     7
100
AcDbLine
 10
-64.54361241848437
 20
76.88498134560575
 30
0.0
 11
-65.54361241848437
 21
76.88498134560575
 31
0.0
  0
LINE
  5
2A1
330
1F
100
AcDbEntity
  8
0
  6
CONTINUOUS
 62
     7
100
AcDbLine
 10
-56.24361241848442
 20
76.88498134560575
 30
0.0
 11
-64.54361241848437
 21
76.88498134560575
 31
0.0
  0
LINE
  5
2A2
330
1F
100
AcDbEntity
  8
0
  6
CONTINUOUS
 62
     7
100
AcDbLine
 10
-68.89361241848428
 20
77.13498134560439
 30
0.0
 11
-68.89361241848428
 21
76.78498134560448
 31
0.0
  0
LINE
  5
2A3
330
1F
100
AcDbEntity
  8
0
  6
CONTINUOUS
 62
     7
100
AcDbLine
 10
-68.89361241848428
 20
75.0849813456058
 30
0.0
 11
-68.89361241848428
 21
74.98498134560589
 31
0.0
  0
LINE
  5
2A4
330
1F
100
AcDbEntity
  8
0
  6
CONTINUOUS
 62
     7
100
AcDbLine
 10
-51.69361241848446
 20
52.78498134560573
 30
0.0
 11
-51.69361241848446
 21
57.78498134560573
 31
0.0
  0
LINE
  5
2A5
330
1F
100
AcDbEntity
  8
0
  6
CONTINUOUS
 62
     7
100
AcDbLine
 10
-51.69361241848446
 20
52.78498134560573
 30
0.0
 11
-51.89361241848428
 21
52.78498134560573
 31
0.0
  0
LINE
  5
2A6
330
1F
100
AcDbEntity
  8
0
  6
CONTINUOUS
 62
     7
100
AcDbLine
 10
-51.69361241848446
 20
57.78498134560573
 30
0.0
 11
-51.89361241848428
 21
57.78498134560573
 31
0.0
  0
LINE
  5
2A7
330
1F
100
AcDbEntity
  8
0
  6
CONTINUOUS
 62
     7
100
AcDbLine
 10
-51.69361241848446
 20
41.38498134560552
 30
0.0
 11
-51.89361241848428
 21
41.38498134560552
 31
0.0
  0
LINE
  5
2A8
330
1F
100
AcDbEntity
  8
0
  6
CONTINUOUS
 62
     7
100
AcDbLine
 10
-51.89361241848428
 20
45.76437445109514
 30
0.0
 11
-51.89361241848428
 21
44.70371427931502
 31
0.0
  0
LINE
  5
2A9
330
1F
100
AcDbEntity
  8
0
  6
CONTINUOUS
 62
     7
100
AcDbLine
 10
-51.89361241848428
 20
42.98498134560566
 30
0.0
 11
-51.89361241848428
 21
41.58498134560568
 31
0.0
  0
LINE
  5
2AA
330
1F
100
AcDbEntity
  8
0
  6
CONTINUOUS
 62
     7
100
AcDbLine
 10
-51.89361241848428
 20
44.70371427931502
 30
0.0
 11
-51.89361241848428
 21
42.98498134560566
 31
0.0
  0
LINE
  5
2AB
330
1F
100
AcDbEntity
  8
0
  6
CONTINUOUS
 62
     7
100
AcDbLine
 10
-51.89361241848428
 20
73.5849813456058
 30
0.0
 11
-51.89361241848428
 21
63.18498134560582
 31
0.0
  0
LINE
  5
2AC
330
1F
100
AcDbEntity
  8
0
  6
CONTINUOUS
 62
     7
100
AcDbLine
 10
-51.89361241848428
 20
77.68498134560582
 30
0.0
 11
-51.89361241848428
 21
77.13498134560439
 31
0.0
  0
LINE
  5
2AD
330
1F
100
AcDbEntity
  8
0
  6
CONTINUOUS
 62
     7
100
AcDbLine
 10
-51.89361241848428
 20
75.0849813456058
 30
0.0
 11
-51.89361241848428
 21
74.98498134560589
 31
0.0
  0
LINE
  5
2AE
330
1F
100
AcDbEntity
  8
0
  6
CONTINUOUS
 62
     7
100
AcDbLine
 10
-51.89361241848428
 20
53.13498134560575
 30
0.0
 11
-51.89361241848428
 21
52.78498134560573
 31
0.0
  0
LINE
  5
2AF
330
1F
100
AcDbEntity
  8
0
  6
CONTINUOUS
 62
     7
100
AcDbLine
 10
-51.89361241848428
 20
57.78498134560573
 30
0.0
 11
-51.89361241848428
 21
57.43498134560571
 31
0.0
  0
LINE
  5
2B0
330
1F
100
AcDbEntity
  8
0
  6
CONTINUOUS
 62
     7
100
AcDbLine
 10
-51.89361241848428
 20
57.43498134560571
 30
0.0
 11
-51.89361241848428
 21
53.13498134560575
 31
0.0
  0
LINE
  5
2B1
330
1F
100
AcDbEntity
  8
0
  6
CONTINUOUS
 62
     7
100
AcDbLine
 10
-51.89361241848428
 20
52.78498134560573
 30
0.0
 11
-51.89361241848428
 21
45.76437445109514
 31
0.0
  0
LINE
  5
2B2
330
1F
100
AcDbEntity
  8
0
  6
CONTINUOUS
 62
     7
100
AcDbLine
 10
-51.89361241848428
 20
41.38498134560552
 30
0.0
 11
-51.89361241848428
 21
41.58498134560568
 31
0.0
  0
LINE
  5
2B3
330
1F
100
AcDbEntity
  8
0
  6
CONTINUOUS
 62
     7
100
AcDbLine
 10
-51.89361241848428
 20
38.68498134560582
 30
0.0
 11
-51.89361241848428
 21
41.38498134560552
 31
0.0
  0
LINE
  5
2B4
330
1F
100
AcDbEntity
  8
0
  6
CONTINUOUS
 62
     7
100
AcDbLine
 10
-51.89361241848428
 20
63.18498134560582
 30
0.0
 11
-51.89361241848428
 21
57.78498134560573
 31
0.0
  0
LINE
  5
2B5
330
1F
100
AcDbEntity
  8
0
  6
CONTINUOUS
 62
     7
100
AcDbLine
 10
-55.24361241848442
 20
41.18498134560593
 30
0.0
 11
-53.89361241848428
 21
41.18498134560593
 31
0.0
  0
LINE
  5
2B6
330
1F
100
AcDbEntity
  8
0
  6
CONTINUOUS
 62
     7
100
AcDbLine
 10
-56.24361241848442
 20
41.18498134560593
 30
0.0
 11
-55.24361241848442
 21
41.18498134560593
 31
0.0
  0
LINE
  5
2B7
330
1F
100
AcDbEntity
  8
0
  6
CONTINUOUS
 62
     7
100
AcDbLine
 10
-58.69361241848446
 20
40.68498134560593
 30
0.0
 11
-58.69361241848446
 21
41.18498134560593
 31
0.0
  0
LINE
  5
2B8
330
1F
100
AcDbEntity
  8
0
  6
CONTINUOUS
 62
     7
100
AcDbLine
 10
-52.84361241848433
 20
72.48498119550288
 30
0.0
 11
-52.84361241848433
 21
73.48498119550288
 31
0.0
  0
LINE
  5
2B9
330
1F
100
AcDbEntity
  8
0
  6
CONTINUOUS
 62
     7
100
AcDbLine
 10
-52.84361241848433
 20
73.48498119550288
 30
0.0
 11
-52.84361241848433
 21
75.83498134560568
 31
0.0
  0
LINE
  5
2BA
330
1F
100
AcDbEntity
  8
0
  6
CONTINUOUS
 62
     7
100
AcDbLine
 10
-52.84361241848433
 20
44.58498134560591
 30
0.0
 11
-52.84361241848433
 21
45.58498134560591
 31
0.0
  0
LINE
  5
2BB
330
1F
100
AcDbEntity
  8
0
  6
CONTINUOUS
 62
     7
100
AcDbLine
 10
-52.84361241848433
 20
42.23498134560589
 30
0.0
 11
-52.84361241848433
 21
44.58498134560591
 31
0.0
  0
LINE
  5
2BC
330
1F
100
AcDbEntity
  8
0
  6
CONTINUOUS
 62
     7
100
AcDbLine
 10
-52.84361241848433
 20
45.58498134560591
 30
0.0
 11
-52.84361241848433
 21
72.48498119550288
 31
0.0
  0
LINE
  5
2BD
330
1F
100
AcDbEntity
  8
0
  6
CONTINUOUS
 62
     7
100
AcDbLine
 10
-52.84361241848433
 20
72.48498119550288
 30
0.0
 11
-52.89361241848428
 21
72.48498119550288
 31
0.0
  0
LINE
  5
2BE
330
1F
100
AcDbEntity
  8
0
  6
CONTINUOUS
 62
     7
100
AcDbLine
 10
-52.89361241848428
 20
73.48498119550288
 30
0.0
 11
-52.84361241848433
 21
73.48498119550288
 31
0.0
  0
LINE
  5
2BF
330
1F
100
AcDbEntity
  8
0
  6
CONTINUOUS
 62
     7
100
AcDbLine
 10
-52.84361241848433
 20
44.58498134560591
 30
0.0
 11
-52.89361241848428
 21
44.58498134560591
 31
0.0
  0
LINE
  5
2C0
330
1F
100
AcDbEntity
  8
0
  6
CONTINUOUS
 62
     7
100
AcDbLine
 10
-52.89361241848428
 20
45.58498134560591
 30
0.0
 11
-52.84361241848433
 21
45.58498134560591
 31
0.0
  0
LINE
  5
2C1
330
1F
100
AcDbEntity
  8
0
  6
CONTINUOUS
 62
     7
100
AcDbLine
 10
-55.24361241848442
 20
76.88498134560575
 30
0.0
 11
-56.24361241848442
 21
76.88498134560575
 31
0.0
  0
LINE
  5
2C2
330
1F
100
AcDbEntity
  8
0
  6
CONTINUOUS
 62
     7
100
AcDbLine
 10
-53.89361241848428
 20
76.88498134560575
 30
0.0
 11
-55.24361241848442
 21
76.88498134560575
 31
0.0
  0
LINE
  5
2C3
330
1F
100
AcDbEntity
  8
0
  6
CONTINUOUS
 62
     7
100
AcDbLine
 10
-55.24361241848442
 20
76.88498134560575
 30
0.0
 11
-55.24361241848442
 21
76.83498134560568
 31
0.0
  0
LINE
  5
2C4
330
1F
100
AcDbEntity
  8
0
  6
CONTINUOUS
 62
     7
100
AcDbLine
 10
-56.24361241848442
 20
76.83498134560568
 30
0.0
 11
-56.24361241848442
 21
76.88498134560575
 31
0.0
  0
LINE
  5
2C5
330
1F
100
AcDbEntity
  8
0
  6
CONTINUOUS
 62
     7
100
AcDbLine
 10
-55.24361241848442
 20
41.23498134560589
 30
0.0
 11
-55.24361241848442
 21
41.18498134560593
 31
0.0
  0
LINE
  5
2C6
330
1F
100
AcDbEntity
  8
0
  6
CONTINUOUS
 62
     7
100
AcDbLine
 10
-69.09361241848433
 20
41.38498134560552
 30
0.0
 11
-69.09361241848433
 21
36.08498134560591
 31
0.0
  0
LINE
  5
2C7
330
1F
100
AcDbEntity
  8
0
  6
CONTINUOUS
 62
     7
100
AcDbLine
 10
-69.09361241848433
 20
57.78498134560573
 30
0.0
 11
-69.09361241848433
 21
52.78498134560573
 31
0.0
  0
LINE
  5
2C8
330
1F
100
AcDbEntity
  8
0
  6
CONTINUOUS
 62
     7
100
AcDbLine
 10
-68.89361241848428
 20
52.78498134560573
 30
0.0
 11
-69.09361241848433
 21
52.78498134560573
 31
0.0
  0
LINE
  5
2C9
330
1F
100
AcDbEntity
  8
0
  6
CONTINUOUS
 62
     7
100
AcDbLine
 10
-68.89361241848428
 20
75.0849813456058
 30
0.0
 11
-69.09361241848433
 21
75.0849813456058
 31
0.0
  0
LINE
  5
2CA
330
1F
100
AcDbEntity
  8
0
  6
CONTINUOUS
 62
     7
100
AcDbLine
 10
-68.89361241848428
 20
57.78498134560573
 30
0.0
 11
-69.09361241848433
 21
57.78498134560573
 31
0.0
  0
LINE
  5
2CB
330
1F
100
AcDbEntity
  8
0
  6
CONTINUOUS
 62
     7
100
AcDbLine
 10
-68.89361241848428
 20
41.38498134560575
 30
0.0
 11
-69.09361241848433
 21
41.38498134560552
 31
0.0
  0
LINE
  5
2CC
330
1F
100
AcDbEntity
  8
0
  6
CONTINUOUS
 62
     7
100
AcDbLine
 10
-67.94361241848446
 20
44.58498134560591
 30
0.0
 11
-67.94361241848446
 21
42.23498134560589
 31
0.0
  0
LINE
  5
2CD
330
1F
100
AcDbEntity
  8
0
  6
CONTINUOUS
 62
     7
100
AcDbLine
 10
-64.54361241848437
 20
41.18498134560593
 30
0.0
 11
-62.09361241848433
 21
41.18498134560593
 31
0.0
  0
LINE
  5
2CE
330
1F
100
AcDbEntity
  8
0
  6
CONTINUOUS
 62
     7
100
AcDbLine
 10
-65.54361241848437
 20
41.23498134560589
 30
0.0
 11
-65.54361241848437
 21
41.18498134560593
 31
0.0
  0
LINE
  5
2CF
330
1F
100
AcDbEntity
  8
0
  6
CONTINUOUS
 62
     7
100
AcDbLine
 10
-65.54361241848437
 20
41.18498134560593
 30
0.0
 11
-64.54361241848437
 21
41.18498134560593
 31
0.0
  0
LINE
  5
2D0
330
1F
100
AcDbEntity
  8
0
  6
CONTINUOUS
 62
     7
100
AcDbLine
 10
-66.89361241848428
 20
41.18498134560593
 30
0.0
 11
-65.54361241848437
 21
41.18498134560593
 31
0.0
  0
LINE
  5
2D1
330
1F
100
AcDbEntity
  8
0
  6
CONTINUOUS
 62
     7
100
AcDbLine
 10
-62.09361241848433
 20
41.18498134560593
 30
0.0
 11
-62.09361241848433
 21
40.68498134560593
 31
0.0
  0
LINE
  5
2D2
330
1F
100
AcDbEntity
  8
0
  6
CONTINUOUS
 62
     7
100
AcDbLine
 10
-68.89361241848428
 20
41.38498134560575
 30
0.0
 11
-68.89361241848428
 21
41.58498134560568
 31
0.0
  0
LINE
  5
2D3
330
1F
100
AcDbEntity
  8
0
  6
CONTINUOUS
 62
     7
100
AcDbLine
 10
-68.89361241848428
 20
42.98498134560566
 30
0.0
 11
-68.89361241848428
 21
41.58498134560568
 31
0.0
  0
LINE
  5
2D4
330
1F
100
AcDbEntity
  8
0
  6
CONTINUOUS
 62
     7
100
AcDbLine
 10
-68.89361241848428
 20
38.68498134560582
 30
0.0
 11
-68.89361241848428
 21
41.38498134560575
 31
0.0
  0
LINE
  5
2D5
330
1F
100
AcDbEntity
  8
0
  6
CONTINUOUS
 62
     7
100
AcDbLine
 10
-68.89361241848428
 20
53.13498134560575
 30
0.0
 11
-68.89361241848428
 21
52.78498134560573
 31
0.0
  0
LINE
  5
2D6
330
1F
100
AcDbEntity
  8
0
  6
CONTINUOUS
 62
     7
100
AcDbLine
 10
-68.89361241848428
 20
57.78498134560573
 30
0.0
 11
-68.89361241848428
 21
57.43498134560571
 31
0.0
  0
LINE
  5
2D7
330
1F
100
AcDbEntity
  8
0
  6
CONTINUOUS
 62
     7
100
AcDbLine
 10
-68.89361241848428
 20
57.43498134560571
 30
0.0
 11
-68.89361241848428
 21
53.13498134560575
 31
0.0
  0
LINE
  5
2D8
330
1F
100
AcDbEntity
  8
0
  6
CONTINUOUS
 62
     7
100
AcDbLine
 10
-68.89361241848428
 20
44.7037142793148
 30
0.0
 11
-68.89361241848428
 21
42.98498134560566
 31
0.0
  0
LINE
  5
2D9
330
1F
100
AcDbEntity
  8
0
  6
CONTINUOUS
 62
     7
100
AcDbLine
 10
-68.89361241848428
 20
45.76437445109457
 30
0.0
 11
-68.89361241848428
 21
44.7037142793148
 31
0.0
  0
LINE
  5
2DA
330
1F
100
AcDbEntity
  8
0
  6
CONTINUOUS
 62
     7
100
AcDbLine
 10
-68.89361241848428
 20
73.5849813456058
 30
0.0
 11
-68.89361241848428
 21
63.18498134560582
 31
0.0
  0
LINE
  5
2DB
330
1F
100
AcDbEntity
  8
0
  6
CONTINUOUS
 62
     7
100
AcDbLine
 10
-68.89361241848428
 20
63.18498134560582
 30
0.0
 11
-68.89361241848428
 21
57.78498134560573
 31
0.0
  0
LINE
  5
2DC
330
1F
100
AcDbEntity
  8
0
  6
CONTINUOUS
 62
     7
100
AcDbLine
 10
-68.89361241848428
 20
52.78498134560573
 30
0.0
 11
-68.89361241848428
 21
45.76437445109457
 31
0.0
  0
LINE
  5
2DD
330
1F
100
AcDbEntity
  8
0
  6
CONTINUOUS
 62
     7
100
AcDbLine
 10
-68.89361241848428
 20
76.78498134560448
 30
0.0
 11
-68.89361241848428
 21
75.0849813456058
 31
0.0
  0
LINE
  5
2DE
330
1F
100
AcDbEntity
  8
0
  6
CONTINUOUS
 62
     7
100
AcDbLine
 10
-67.94361241848446
 20
45.58498134560591
 30
0.0
 11
-67.89361241848428
 21
45.58498134560591
 31
0.0
  0
LINE
  5
2DF
330
1F
100
AcDbEntity
  8
0
  6
CONTINUOUS
 62
     7
100
AcDbLine
 10
-67.89361241848428
 20
44.58498134560591
 30
0.0
 11
-67.94361241848446
 21
44.58498134560591
 31
0.0
  0
LINE
  5
2E0
330
1F
100
AcDbEntity
  8
0
  6
CONTINUOUS
 62
     7
100
AcDbLine
 10
-67.94361241848446
 20
73.48498119550288
 30
0.0
 11
-67.94361241848446
 21
72.48498119550288
 31
0.0
  0
LINE
  5
2E1
330
1F
100
AcDbEntity
  8
0
  6
CONTINUOUS
 62
     7
100
AcDbLine
 10
-67.94361241848446
 20
75.83498134560568
 30
0.0
 11
-67.94361241848446
 21
73.48498119550288
 31
0.0
  0
LINE
  5
2E2
330
1F
100
AcDbEntity
  8
0
  6
CONTINUOUS
 62
     7
100
AcDbLine
 10
-67.94361241848446
 20
45.58498134560591
 30
0.0
 11
-67.94361241848446
 21
44.58498134560591
 31
0.0
  0
LINE
  5
2E3
330
1F
100
AcDbEntity
  8
0
  6
CONTINUOUS
 62
     7
100
AcDbLine
 10
-67.94361241848446
 20
72.48498119550288
 30
0.0
 11
-67.94361241848446
 21
45.58498134560591
 31
0.0
  0
LINE
  5
2E4
330
1F
100
AcDbEntity
  8
0
  6
CONTINUOUS
 62
     7
100
AcDbLine
 10
-67.94361241848446
 20
73.48498119550288
 30
0.0
 11
-67.89361241848428
 21
73.48498119550288
 31
0.0
  0
LINE
  5
2E5
330
1F
100
AcDbEntity
  8
0
  6
CONTINUOUS
 62
     7
100
AcDbLine
 10
-67.89361241848428
 20
72.48498119550288
 30
0.0
 11
-67.94361241848446
 21
72.48498119550288
 31
0.0
  0
LINE
  5
2E6
330
1F
100
AcDbEntity
  8
0
  6
CONTINUOUS
 62
     7
100
AcDbLine
 10
-64.54361241848437
 20
76.88498134560575
 30
0.0
 11
-64.54361241848437
 21
76.83498134560568
 31
0.0
  0
LINE
  5
2E7
330
1F
100
AcDbEntity
  8
0
  6
CONTINUOUS
 62
     7
100
AcDbLine
 10
-64.54361241848437
 20
41.18498134560593
 30
0.0
 11
-64.54361241848437
 21
41.23498134560589
 31
0.0
  0
LINE
  5
2E8
330
1F
100
AcDbEntity
  8
0
  6
CONTINUOUS
 62
     7
100
AcDbLine
 10
-58.69361241848446
 20
41.18498134560593
 30
0.0
 11
-56.24361241848442
 21
41.18498134560593
 31
0.0
  0
LINE
  5
2E9
330
1F
100
AcDbEntity
  8
0
  6
CONTINUOUS
 62
     7
100
AcDbLine
 10
-56.24361241848442
 20
41.18498134560593
 30
0.0
 11
-56.24361241848442
 21
41.23498134560589
 31
0.0
  0
LINE
  5
2EA
330
1F
100
AcDbEntity
  8
0
  6
CONTINUOUS
 62
     7
100
AcDbLine
 10
-58.69361241848446
 20
41.18498134560593
 30
0.0
 11
-58.69361241848446
 21
41.23498134560589
 31
0.0
  0
LINE
  5
2EB
330
1F
100
AcDbEntity
  8
0
  6
CONTINUOUS
 62
     7
100
AcDbLine
 10
-62.09361241848433
 20
40.68498134560593
 30
0.0
 11
-58.69361241848446
 21
40.68498134560593
 31
0.0
  0
LINE
  5
2EC
330
1F
100
AcDbEntity
  8
0
  6
CONTINUOUS
 62
     7
100
AcDbLine
 10
-62.09361241848433
 20
41.23498134560589
 30
0.0
 11
-62.09361241848433
 21
41.18498134560593
 31
0.0
  0
LINE
  5
2ED
330
1F
100
AcDbEntity
  8
0
  6
CONTINUOUS
 62
     7
100
AcDbLine
 10
-51.89361241848428
 20
74.98498134560589
 30
0.0
 11
-51.89361241848428
 21
73.5849813456058
 31
0.0
  0
LINE
  5
2EE
330
1F
100
AcDbEntity
  8
0
  6
CONTINUOUS
 62
     7
100
AcDbLine
 10
-68.89361241848428
 20
74.98498134560589
 30
0.0
 11
-68.89361241848428
 21
73.5849813456058
 31
0.0
  0
LINE
  5
2EF
330
1F
100
AcDbEntity
  8
0
  6
CONTINUOUS
 62
     7
100
AcDbLine
 10
-53.89361241848428
 20
41.23498134560589
 30
0.0
 11
-58.89361241848428
 21
41.23498134560589
 31
0.0
  0
LINE
  5
2F0
330
1F
100
AcDbEntity
  8
0
  6
CONTINUOUS
 62
     7
100
AcDbLine
 10
-66.89361241848428
 20
76.83498134560568
 30
0.0
 11
-53.89361241848428
 21
76.83498134560568
 31
0.0
  0
LINE
  5
2F1
330
1F
100
AcDbEntity
  8
0
  6
CONTINUOUS
 62
     7
100
AcDbLine
 10
-52.89361241848428
 20
75.83498134560568
 30
0.0
 11
-52.89361241848428
 21
42.23498134560589
 31
0.0
  0
LINE
  5
2F2
330
1F
100
AcDbEntity
  8
0
  6
CONTINUOUS
 62
     7
100
AcDbLine
 10
-54.64361241848428
 20
52.98498119550288
 30
0.0
 11
-54.64361241848428
 21
69.08498134560568
 31
0.0
  0
LINE
  5
2F3
330
1F
100
AcDbEntity
  8
0
  6
CONTINUOUS
 62
     7
100
AcDbLine
 10
-67.89361241848428
 20
42.23498134560589
 30
0.0
 11
-67.89361241848428
 21
75.83498134560568
 31
0.0
  0
LINE
  5
2F4
330
1F
100
AcDbEntity
  8
0
  6
CONTINUOUS
 62
     7
100
AcDbLine
 10
-61.89361241848428
 20
41.23498134560589
 30
0.0
 11
-66.89361241848428
 21
41.23498134560589
 31
0.0
  0
LINE
  5
2F5
330
1F
100
AcDbEntity
  8
0
  6
CONTINUOUS
 62
     7
100
AcDbLine
 10
-66.14361241848428
 20
69.08498134560568
 30
0.0
 11
-66.14361241848428
 21
52.98498119550288
 31
0.0
  0
LINE
  5
2F6
330
1F
100
AcDbEntity
  8
0
  6
CONTINUOUS
 62
     7
100
AcDbLine
 10
-65.14361241848428
 20
51.98498119550288
 30
0.0
 11
-62.84157075146345
 21
51.98498119550288
 31
0.0
  0
LINE
  5
2F7
330
1F
100
AcDbEntity
  8
0
  6
CONTINUOUS
 62
     7
100
AcDbLine
 10
-55.64361241848428
 20
70.08498134560568
 30
0.0
 11
-65.14361241848428
 21
70.08498134560568
 31
0.0
  0
LINE
  5
2F8
330
1F
100
AcDbEntity
  8
0
  6
CONTINUOUS
 62
     7
100
AcDbLine
 10
-57.94565408550534
 20
51.98498119550288
 30
0.0
 11
-55.64361241848428
 21
51.98498119550288
 31
0.0
  0
LINE
  5
2F9
330
1F
100
AcDbEntity
  8
0
  6
CONTINUOUS
 62
     7
100
AcDbLine
 10
-58.89361241848428
 20
40.93498134560593
 30
0.0
 11
-61.89361241848428
 21
40.93498134560593
 31
0.0
  0
LINE
  5
2FA
330
1F
100
AcDbEntity
  8
0
  6
CONTINUOUS
 62
     7
100
AcDbLine
 10
-58.89361241848428
 20
41.23498134560589
 30
0.0
 11
-58.89361241848428
 21
40.93498134560593
 31
0.0
  0
LINE
  5
2FB
330
1F
100
AcDbEntity
  8
0
  6
CONTINUOUS
 62
     7
100
AcDbLine
 10
-59.42407644700143
 20
54.33498119550279
 30
0.0
 11
-61.36314838996736
 21
54.33498119550279
 31
0.0
  0
LINE
  5
2FC
330
1F
100
AcDbEntity
  8
0
  6
CONTINUOUS
 62
     7
100
AcDbLine
 10
-61.89361241848428
 20
40.93498134560593
 30
0.0
 11
-61.89361241848428
 21
41.23498134560589
 31
0.0
  0
LINE
  5
2FD
330
1F
100
AcDbEntity
  8
0
  6
CONTINUOUS
 62
     7
100
AcDbLine
 10
6.25638723360362
 20
80.48998134560577
 30
0.0
 11
-7.24361276639638
 21
80.48998134560577
 31
0.0
  0
LINE
  5
2FE
330
1F
100
AcDbEntity
  8
0
  6
CONTINUOUS
 62
     7
100
AcDbLine
 10
17.50638755243153
 20
79.11284517696538
 30
0.0
 11
17.50638755243153
 21
76.5849812830437
 31
0.0
  0
LINE
  5
2FF
330
1F
100
AcDbEntity
  8
0
  6
CONTINUOUS
 62
     7
100
AcDbLine
 10
17.50638755228465
 20
79.21284517652987
 30
0.0
 11
17.50638755243153
 21
79.1341201160734
 31
0.0
  0
LINE
  5
300
330
1F
100
AcDbEntity
  8
0
  6
CONTINUOUS
 62
     7
100
AcDbLine
 10
17.29524193459861
 20
80.10727236761329
 30
0.0
 11
16.56178117687773
 21
81.57419388450819
 31
0.0
  0
LINE
  5
301
330
1F
100
AcDbEntity
  8
0
  6
CONTINUOUS
 62
     7
100
AcDbLine
 10
13.25638758151558
 20
79.08498134560512
 30
0.0
 11
-10.09361241848433
 21
79.08498134560512
 31
0.0
  0
LINE
  5
302
330
1F
100
AcDbEntity
  8
0
  6
CONTINUOUS
 62
     7
100
AcDbLine
 10
1.5063880191426
 20
38.38498134560598
 30
0.0
 11
1.5063880191426
 21
38.68498134560582
 31
0.0
  0
LINE
  5
303
330
1F
100
AcDbEntity
  8
0
  6
CONTINUOUS
 62
     7
100
AcDbLine
 10
2.9063880191427
 20
36.98498134560589
 30
0.0
 11
6.0062837979076
 21
36.98498134560589
 31
0.0
  0
LINE
  5
304
330
1F
100
AcDbEntity
  8
0
  6
CONTINUOUS
 62
     7
100
AcDbLine
 10
14.70638758151563
 20
76.28498128304375
 30
0.0
 11
14.70638758151563
 21
77.63498134560507
 31
0.0
  0
LINE
  5
305
330
1F
100
AcDbEntity
  8
0
  6
CONTINUOUS
 62
     7
100
AcDbLine
 10
-15.79361241848437
 20
73.5849813456058
 30
0.0
 11
-15.79361241848437
 21
73.48498119550288
 31
0.0
  0
LINE
  5
306
330
1F
100
AcDbEntity
  8
0
  6
CONTINUOUS
 62
     7
100
AcDbLine
 10
-14.39361241848428
 20
41.58498134560568
 30
0.0
 11
-1.39361198085726
 21
41.5849813456058
 31
0.0
  0
LINE
  5
307
330
1F
100
AcDbEntity
  8
0
  6
CONTINUOUS
 62
     7
100
AcDbLine
 10
-14.39361241848428
 20
74.98498134560589
 30
0.0
 11
-14.38895873746742
 21
74.98498134560589
 31
0.0
  0
LINE
  5
308
330
1F
100
AcDbEntity
  8
0
  6
CONTINUOUS
 62
     7
100
AcDbLine
 10
7.03158863062868
 20
37.40967651288531
 30
0.0
 11
14.28169241423575
 21
44.65978029649284
 31
0.0
  0
LINE
  5
309
330
1F
100
AcDbEntity
  8
0
  6
CONTINUOUS
 62
     7
100
AcDbLine
 10
-15.79361241848437
 20
72.28498119550284
 30
0.0
 11
-15.79361241848437
 21
71.68498134560582
 31
0.0
  0
LINE
  5
30A
330
1F
100
AcDbEntity
  8
0
  6
CONTINUOUS
 62
     7
100
AcDbLine
 10
-15.79361241848437
 20
71.68498134560582
 30
0.0
 11
-15.79361241848437
 21
71.28498134560573
 31
0.0
  0
LINE
  5
30B
330
1F
100
AcDbEntity
  8
0
  6
CONTINUOUS
 62
     7
100
AcDbLine
 10
-15.79361241848437
 20
71.28498134560573
 30
0.0
 11
-15.79361241848437
 21
70.1849813456057
 31
0.0
  0
LINE
  5
30C
330
1F
100
AcDbEntity
  8
0
  6
CONTINUOUS
 62
     7
100
AcDbLine
 10
-15.79361241848437
 20
73.48498119550288
 30
0.0
 11
-15.79361241848437
 21
72.28498119550284
 31
0.0
  0
LINE
  5
30D
330
1F
100
AcDbEntity
  8
0
  6
CONTINUOUS
 62
     7
100
AcDbLine
 10
-15.79361241848437
 20
47.78498119550284
 30
0.0
 11
-15.79361241848437
 21
46.78498119550284
 31
0.0
  0
LINE
  5
30E
330
1F
100
AcDbEntity
  8
0
  6
CONTINUOUS
 62
     7
100
AcDbLine
 10
-15.79361241848437
 20
46.78498119550284
 30
0.0
 11
-15.79361241848437
 21
43.98498134560589
 31
0.0
  0
LINE
  5
30F
330
1F
100
AcDbEntity
  8
0
  6
CONTINUOUS
 62
     7
100
AcDbLine
 10
-15.79361241848437
 20
43.98498134560589
 30
0.0
 11
-15.79361241848437
 21
42.98498134560566
 31
0.0
  0
LINE
  5
310
330
1F
100
AcDbEntity
  8
0
  6
CONTINUOUS
 62
     7
100
AcDbLine
 10
-15.79361241848437
 20
70.1849813456057
 30
0.0
 11
-15.79361241848437
 21
47.78498119550284
 31
0.0
  0
LINE
  5
311
330
1F
100
AcDbEntity
  8
0
  6
CONTINUOUS
 62
     7
100
AcDbLine
 10
14.70638758151563
 20
57.98498134560589
 30
0.0
 11
15.00638758151558
 21
57.98498134560589
 31
0.0
  0
LINE
  5
312
330
1F
100
AcDbEntity
  8
0
  6
CONTINUOUS
 62
     7
100
AcDbLine
 10
14.70638758151563
 20
62.98498134560589
 30
0.0
 11
14.70638758151563
 21
72.92040702132556
 31
0.0
  0
LINE
  5
313
330
1F
100
AcDbEntity
  8
0
  6
CONTINUOUS
 62
     7
100
AcDbLine
 10
15.00638758151558
 20
62.98498134560589
 30
0.0
 11
14.70638758151563
 21
62.98498134560589
 31
0.0
  0
LINE
  5
314
330
1F
100
AcDbEntity
  8
0
  6
CONTINUOUS
 62
     7
100
AcDbLine
 10
14.70638758151563
 20
45.68508512921324
 30
0.0
 11
14.70638758151563
 21
57.98498134560589
 31
0.0
  0
LINE
  5
315
330
1F
100
AcDbEntity
  8
0
  6
CONTINUOUS
 62
     7
100
AcDbLine
 10
14.70638758151563
 20
72.92040702132556
 30
0.0
 11
14.70638758151563
 21
76.28498128304375
 31
0.0
  0
LINE
  5
316
330
1F
100
AcDbEntity
  8
0
  6
CONTINUOUS
 62
     7
100
AcDbLine
 10
15.00638758151558
 20
57.98498134560589
 30
0.0
 11
15.00638758151558
 21
62.98498134560589
 31
0.0
  0
LINE
  5
317
330
1F
100
AcDbEntity
  8
0
  6
CONTINUOUS
 62
     7
100
AcDbLine
 10
13.25638758151558
 20
79.08498134560512
 30
0.0
 11
-10.09361241848433
 21
79.08498134560512
 31
0.0
  0
LINE
  5
318
330
1F
100
AcDbEntity
  8
0
  6
CONTINUOUS
 62
     7
100
AcDbLine
 10
1.5063880191426
 20
38.38498134560598
 30
0.0
 11
1.5063880191426
 21
38.68498134560582
 31
0.0
  0
LINE
  5
319
330
1F
100
AcDbEntity
  8
0
  6
CONTINUOUS
 62
     7
100
AcDbLine
 10
2.9063880191427
 20
36.98498134560589
 30
0.0
 11
6.0062837979076
 21
36.98498134560589
 31
0.0
  0
LINE
  5
31A
330
1F
100
AcDbEntity
  8
0
  6
CONTINUOUS
 62
     7
100
AcDbLine
 10
14.70638758151563
 20
76.28498128304375
 30
0.0
 11
14.70638758151563
 21
77.63498134560507
 31
0.0
  0
LINE
  5
31B
330
1F
100
AcDbEntity
  8
0
  6
CONTINUOUS
 62
     7
100
AcDbLine
 10
-15.79361241848437
 20
73.5849813456058
 30
0.0
 11
-15.79361241848437
 21
73.48498119550288
 31
0.0
  0
LINE
  5
31C
330
1F
100
AcDbEntity
  8
0
  6
CONTINUOUS
 62
     7
100
AcDbLine
 10
-14.39361241848428
 20
41.58498134560568
 30
0.0
 11
-1.39361198085726
 21
41.5849813456058
 31
0.0
  0
LINE
  5
31D
330
1F
100
AcDbEntity
  8
0
  6
CONTINUOUS
 62
     7
100
AcDbLine
 10
8.50638758151558
 20
47.18498134560502
 30
0.0
 11
-11.49361241848442
 21
47.18498134560502
 31
0.0
  0
LINE
  5
31E
330
1F
100
AcDbEntity
  8
0
  6
CONTINUOUS
 62
     7
100
AcDbLine
 10
-11.49361241848442
 20
72.58498134560512
 30
0.0
 11
8.50638758151558
 21
72.58498134560512
 31
0.0
  0
LINE
  5
31F
330
1F
100
AcDbEntity
  8
0
  6
CONTINUOUS
 62
     7
100
AcDbLine
 10
-14.39361241848428
 20
74.98498134560589
 30
0.0
 11
-14.38895873746742
 21
74.98498134560589
 31
0.0
  0
LINE
  5
320
330
1F
100
AcDbEntity
  8
0
  6
CONTINUOUS
 62
     7
100
AcDbLine
 10
8.70638758151563
 20
72.38498134560507
 30
0.0
 11
8.70638758151563
 21
47.38498134560507
 31
0.0
  0
LINE
  5
321
330
1F
100
AcDbEntity
  8
0
  6
CONTINUOUS
 62
     7
100
AcDbLine
 10
-11.69361241848446
 20
47.38498134560507
 30
0.0
 11
-11.69361241848446
 21
72.38498134560507
 31
0.0
  0
LINE
  5
322
330
1F
100
AcDbEntity
  8
0
  6
CONTINUOUS
 62
     7
100
AcDbLine
 10
7.03158863062868
 20
37.40967651288531
 30
0.0
 11
14.28169241423575
 21
44.65978029649284
 31
0.0
  0
LINE
  5
323
330
1F
100
AcDbEntity
  8
0
  6
CONTINUOUS
 62
     7
100
AcDbLine
 10
-15.79361241848437
 20
72.28498119550284
 30
0.0
 11
-15.79361241848437
 21
71.68498134560582
 31
0.0
  0
LINE
  5
324
330
1F
100
AcDbEntity
  8
0
  6
CONTINUOUS
 62
     7
100
AcDbLine
 10
-15.79361241848437
 20
71.68498134560582
 30
0.0
 11
-15.79361241848437
 21
71.28498134560573
 31
0.0
  0
LINE
  5
325
330
1F
100
AcDbEntity
  8
0
  6
CONTINUOUS
 62
     7
100
AcDbLine
 10
-15.79361241848437
 20
71.28498134560573
 30
0.0
 11
-15.79361241848437
 21
70.1849813456057
 31
0.0
  0
LINE
  5
326
330
1F
100
AcDbEntity
  8
0
  6
CONTINUOUS
 62
     7
100
AcDbLine
 10
-15.79361241848437
 20
73.48498119550288
 30
0.0
 11
-15.79361241848437
 21
72.28498119550284
 31
0.0
  0
LINE
  5
327
330
1F
100
AcDbEntity
  8
0
  6
CONTINUOUS
 62
     7
100
AcDbLine
 10
-15.79361241848437
 20
47.78498119550284
 30
0.0
 11
-15.79361241848437
 21
46.78498119550284
 31
0.0
  0
LINE
  5
328
330
1F
100
AcDbEntity
  8
0
  6
CONTINUOUS
 62
     7
100
AcDbLine
 10
-15.79361241848437
 20
46.78498119550284
 30
0.0
 11
-15.79361241848437
 21
43.98498134560589
 31
0.0
  0
LINE
  5
329
330
1F
100
AcDbEntity
  8
0
  6
CONTINUOUS
 62
     7
100
AcDbLine
 10
-15.79361241848437
 20
43.98498134560589
 30
0.0
 11
-15.79361241848437
 21
42.98498134560566
 31
0.0
  0
LINE
  5
32A
330
1F
100
AcDbEntity
  8
0
  6
CONTINUOUS
 62
     7
100
AcDbLine
 10
-15.79361241848437
 20
70.1849813456057
 30
0.0
 11
-15.79361241848437
 21
47.78498119550284
 31
0.0
  0
LINE
  5
32B
330
1F
100
AcDbEntity
  8
0
  6
CONTINUOUS
 62
     7
100
AcDbLine
 10
14.70638758151563
 20
57.98498134560589
 30
0.0
 11
15.00638758151558
 21
57.98498134560589
 31
0.0
  0
LINE
  5
32C
330
1F
100
AcDbEntity
  8
0
  6
CONTINUOUS
 62
     7
100
AcDbLine
 10
14.70638758151563
 20
62.98498134560589
 30
0.0
 11
14.70638758151563
 21
72.92040702132556
 31
0.0
  0
LINE
  5
32D
330
1F
100
AcDbEntity
  8
0
  6
CONTINUOUS
 62
     7
100
AcDbLine
 10
15.00638758151558
 20
62.98498134560589
 30
0.0
 11
14.70638758151563
 21
62.98498134560589
 31
0.0
  0
LINE
  5
32E
330
1F
100
AcDbEntity
  8
0
  6
CONTINUOUS
 62
     7
100
AcDbLine
 10
14.70638758151563
 20
45.68508512921324
 30
0.0
 11
14.70638758151563
 21
57.98498134560589
 31
0.0
  0
LINE
  5
32F
330
1F
100
AcDbEntity
  8
0
  6
CONTINUOUS
 62
     7
100
AcDbLine
 10
14.70638758151563
 20
72.92040702132556
 30
0.0
 11
14.70638758151563
 21
76.28498128304375
 31
0.0
  0
LINE
  5
330
330
1F
100
AcDbEntity
  8
0
  6
CONTINUOUS
 62
     7
100
AcDbLine
 10
15.00638758151558
 20
57.98498134560589
 30
0.0
 11
15.00638758151558
 21
62.98498134560589
 31
0.0
  0
LINE
  5
331
330
1F
100
AcDbEntity
  8
0
  6
CONTINUOUS
 62
     7
100
AcDbLine
 10
-10.09826609950142
 20
79.18498134560434
 30
0.0
 11
11.25638755282762
 21
79.18498134560434
 31
0.0
  0
LINE
  5
332
330
1F
100
AcDbEntity
  8
0
  6
CONTINUOUS
 62
     7
100
AcDbLine
 10
13.40638758151567
 20
79.18498134560434
 30
0.0
 11
11.25638755282762
 21
79.18498134560434
 31
0.0
  0
LINE
  5
333
330
1F
100
AcDbEntity
  8
0
  6
CONTINUOUS
 62
     7
100
AcDbLine
 10
14.90638758151567
 20
45.76437445109514
 30
0.0
 11
14.90638758151567
 21
53.13498134560575
 31
0.0
  0
LINE
  5
334
330
1F
100
AcDbEntity
  8
0
  6
CONTINUOUS
 62
     7
100
AcDbLine
 10
15.60638755282776
 20
44.91879003882366
 30
0.0
 11
15.60638755282776
 21
53.13498134560575
 31
0.0
  0
LINE
  5
335
330
1F
100
AcDbEntity
  8
0
  6
CONTINUOUS
 62
     7
100
AcDbLine
 10
15.60638755282776
 20
53.13498134560575
 30
0.0
 11
15.60638756717162
 21
57.43498134560582
 31
0.0
  0
LINE
  5
336
330
1F
100
AcDbEntity
  8
0
  6
CONTINUOUS
 62
     7
100
AcDbLine
 10
15.60638755282776
 20
71.08498134639774
 30
0.0
 11
15.60638755282776
 21
77.13498134560439
 31
0.0
  0
LINE
  5
337
330
1F
100
AcDbEntity
  8
0
  6
CONTINUOUS
 62
     7
100
AcDbLine
 10
14.90638758151567
 20
63.18498134560582
 30
0.0
 11
14.90638758151567
 21
77.13498134560439
 31
0.0
  0
LINE
  5
338
330
1F
100
AcDbEntity
  8
0
  6
CONTINUOUS
 62
     7
100
AcDbLine
 10
14.90638756717158
 20
57.43498134560571
 30
0.0
 11
14.90638758151567
 21
53.13498134560575
 31
0.0
  0
LINE
  5
339
330
1F
100
AcDbEntity
  8
0
  6
CONTINUOUS
 62
     7
100
AcDbLine
 10
15.10638755282776
 20
80.48498134560589
 30
0.0
 11
11.25638755282762
 21
80.48498134560589
 31
0.0
  0
LINE
  5
33A
330
1F
100
AcDbEntity
  8
0
  6
CONTINUOUS
 62
     7
100
AcDbLine
 10
14.46704775329567
 20
44.70371427931502
 30
0.0
 11
7.08765464780663
 21
37.32432117382598
 31
0.0
  0
LINE
  5
33B
330
1F
100
AcDbEntity
  8
0
  6
CONTINUOUS
 62
     7
100
AcDbLine
 10
15.60638755282776
 20
79.98498134560589
 30
0.0
 11
15.60638755282776
 21
77.13498134560439
 31
0.0
  0
LINE
  5
33C
330
1F
100
AcDbEntity
  8
0
  6
CONTINUOUS
 62
     7
100
AcDbLine
 10
14.90638758151567
 20
77.13498134560439
 30
0.0
 11
14.90638758151567
 21
77.68498134560434
 31
0.0
  0
LINE
  5
33D
330
1F
100
AcDbEntity
  8
0
  6
CONTINUOUS
 62
     7
100
AcDbLine
 10
17.50638755243153
 20
79.11284517696538
 30
0.0
 11
17.50638755243153
 21
76.5849812830437
 31
0.0
  0
LINE
  5
33E
330
1F
100
AcDbEntity
  8
0
  6
CONTINUOUS
 62
     7
100
AcDbLine
 10
17.29524193443172
 20
80.00727236796513
 30
0.0
 11
16.62255000701362
 21
81.35265622280099
 31
0.0
  0
LINE
  5
33F
330
1F
100
AcDbEntity
  8
0
  6
CONTINUOUS
 62
     7
100
AcDbLine
 10
-11.34238640537637
 20
80.48498134560589
 30
0.0
 11
9.90638723360371
 21
80.48498134560589
 31
0.0
  0
LINE
  5
340
330
1F
100
AcDbEntity
  8
0
  6
CONTINUOUS
 62
     7
100
AcDbLine
 10
6.02699447602663
 20
36.88498134560598
 30
0.0
 11
2.80638801914256
 21
36.88498134560598
 31
0.0
  0
LINE
  5
341
330
1F
100
AcDbEntity
  8
0
  6
CONTINUOUS
 62
     7
100
AcDbLine
 10
6.77257888829763
 20
36.08498134560591
 30
0.0
 11
-1.29361198085735
 21
36.08498134560591
 31
0.0
  0
LINE
  5
342
330
1F
100
AcDbEntity
  8
0
  6
CONTINUOUS
 62
     7
100
AcDbLine
 10
1.30638801914256
 20
38.68498134560582
 30
0.0
 11
1.30638801914256
 21
38.38498134560598
 31
0.0
  0
LINE
  5
343
330
1F
100
AcDbEntity
  8
0
  6
CONTINUOUS
 62
     7
100
AcDbLine
 10
-8.39361241848428
 20
37.13498134560575
 30
0.0
 11
-1.39361198085726
 21
37.13498134560575
 31
0.0
  0
LINE
  5
344
330
1F
100
AcDbEntity
  8
0
  6
CONTINUOUS
 62
     7
100
AcDbLine
 10
-14.59361241848433
 20
36.08498134560591
 30
0.0
 11
-1.29361198085735
 21
36.08498134560591
 31
0.0
  0
LINE
  5
345
330
1F
100
AcDbEntity
  8
0
  6
CONTINUOUS
 62
     7
100
AcDbLine
 10
-1.39361198085726
 20
40.23498134560589
 30
0.0
 11
-8.39361241848428
 21
40.23498134560589
 31
0.0
  0
LINE
  5
346
330
1F
100
AcDbEntity
  8
0
  6
CONTINUOUS
 62
     7
100
AcDbLine
 10
-17.19361241848446
 20
38.68498134560832
 30
0.0
 11
-17.19361241848446
 21
51.98498119550288
 31
0.0
  0
LINE
  5
347
330
1F
100
AcDbEntity
  8
0
  6
CONTINUOUS
 62
     7
100
AcDbLine
 10
-17.19361241848446
 20
54.33498119550279
 30
0.0
 11
-17.19361241848446
 21
77.68498134560582
 31
0.0
  0
LINE
  5
348
330
1F
100
AcDbEntity
  8
0
  6
CONTINUOUS
 62
     7
100
AcDbLine
 10
-17.19361241848446
 20
77.68498134560582
 30
0.0
 11
-17.19361241848446
 21
77.88498134560575
 31
0.0
  0
LINE
  5
349
330
1F
100
AcDbEntity
  8
0
  6
CONTINUOUS
 62
     7
100
AcDbLine
 10
-15.99361241848442
 20
42.88498134560575
 30
0.0
 11
-15.99361241847328
 21
73.5849813456058
 31
0.0
  0
LINE
  5
34A
330
1F
100
AcDbEntity
  8
0
  6
CONTINUOUS
 62
     7
100
AcDbLine
 10
-1.39361198085726
 20
41.38498134560575
 30
0.0
 11
-14.49361241848442
 21
41.38498134560575
 31
0.0
  0
LINE
  5
34B
330
1F
100
AcDbEntity
  8
0
  6
CONTINUOUS
 62
     7
100
AcDbLine
 10
-14.59361241848433
 20
80.48498134560589
 30
0.0
 11
-14.19361241848446
 21
80.48498134560589
 31
0.0
  0
LINE
  5
34C
330
1F
100
AcDbEntity
  8
0
  6
CONTINUOUS
 62
     7
100
AcDbLine
 10
-14.19361241848446
 20
80.48498134560589
 30
0.0
 11
-11.34361276639629
 21
80.48498134560589
 31
0.0
  0
LINE
  5
34D
330
1F
100
AcDbEntity
  8
0
  6
CONTINUOUS
 62
     7
100
AcDbLine
 10
9.90638723360371
 20
80.48498134560589
 30
0.0
 11
11.25638755282762
 21
80.48498134560589
 31
0.0
  0
LINE
  5
34E
330
1F
100
AcDbEntity
  8
0
  6
CONTINUOUS
 62
     7
100
AcDbLine
 10
-17.19361241848446
 20
51.98498119550288
 30
0.0
 11
-17.19361241848446
 21
54.33498119550279
 31
0.0
  0
LINE
  5
34F
330
1F
100
AcDbEntity
  8
0
  6
CONTINUOUS
 62
     7
100
AcDbLine
 10
15.4599409721086
 20
44.56523664823033
 30
0.0
 11
7.12613227889165
 21
36.23142795501269
 31
0.0
  0
LINE
  5
350
330
1F
100
AcDbEntity
  8
0
  6
CONTINUOUS
 62
     7
100
AcDbLine
 10
-14.39361241848428
 20
75.0849813456058
 30
0.0
 11
-14.49361241848442
 21
75.08498134559443
 31
0.0
  0
LINE
  5
351
330
1F
100
AcDbEntity
  8
0
  6
CONTINUOUS
 62
     7
100
AcDbLine
 10
-14.49361241848442
 20
75.08498134559443
 30
0.0
 11
-14.59361241848433
 21
75.0849813456058
 31
0.0
  0
LINE
  5
352
330
1F
100
AcDbEntity
  8
0
  6
CONTINUOUS
 62
     7
100
AcDbLine
 10
-15.79361241848437
 20
72.28498119550284
 30
0.0
 11
-15.79361241848437
 21
71.68498134560582
 31
0.0
  0
LINE
  5
353
330
1F
100
AcDbEntity
  8
0
  6
CONTINUOUS
 62
     7
100
AcDbLine
 10
-15.79361241848437
 20
71.68498134560582
 30
0.0
 11
-15.79361241848437
 21
71.28498134560573
 31
0.0
  0
LINE
  5
354
330
1F
100
AcDbEntity
  8
0
  6
CONTINUOUS
 62
     7
100
AcDbLine
 10
-15.79361241848437
 20
71.28498134560573
 30
0.0
 11
-15.79361241848437
 21
70.1849813456057
 31
0.0
  0
LINE
  5
355
330
1F
100
AcDbEntity
  8
0
  6
CONTINUOUS
 62
     7
100
AcDbLine
 10
-15.79361241848437
 20
73.48498119550288
 30
0.0
 11
-15.79361241848437
 21
72.28498119550284
 31
0.0
  0
LINE
  5
356
330
1F
100
AcDbEntity
  8
0
  6
CONTINUOUS
 62
     7
100
AcDbLine
 10
-15.79361241848437
 20
47.78498119550284
 30
0.0
 11
-15.79361241848437
 21
46.78498119550284
 31
0.0
  0
LINE
  5
357
330
1F
100
AcDbEntity
  8
0
  6
CONTINUOUS
 62
     7
100
AcDbLine
 10
14.70638758151563
 20
57.78498134560573
 30
0.0
 11
14.90638758151567
 21
57.78498134560573
 31
0.0
  0
LINE
  5
358
330
1F
100
AcDbEntity
  8
0
  6
CONTINUOUS
 62
     7
100
AcDbLine
 10
14.90638758151567
 20
57.78498134560573
 30
0.0
 11
15.25638756717171
 21
57.78498134560573
 31
0.0
  0
LINE
  5
359
330
1F
100
AcDbEntity
  8
0
  6
CONTINUOUS
 62
     7
100
AcDbLine
 10
14.90638756717158
 20
57.43498134560571
 30
0.0
 11
14.90638758151567
 21
57.78498134560573
 31
0.0
  0
LINE
  5
35A
330
1F
100
AcDbEntity
  8
0
  6
CONTINUOUS
 62
     7
100
AcDbLine
 10
14.90638758151567
 20
63.18498134560582
 30
0.0
 11
14.70638758151563
 21
63.18498134560582
 31
0.0
  0
LINE
  5
35B
330
1F
100
AcDbEntity
  8
0
  6
CONTINUOUS
 62
     7
100
AcDbLine
 10
15.35638758151572
 20
63.18498134560582
 30
0.0
 11
14.90638758151567
 21
63.18498134560582
 31
0.0
  0
LINE
  5
35C
330
1F
100
AcDbEntity
  8
0
  6
CONTINUOUS
 62
     7
100
AcDbLine
 10
15.25638756717171
 20
57.78498134560573
 30
0.0
 11
15.35638758151572
 21
57.78498134560573
 31
0.0
  0
LINE
  5
35D
330
1F
100
AcDbEntity
  8
0
  6
CONTINUOUS
 62
     7
100
AcDbLine
 10
15.35638758151572
 20
57.78498134560573
 30
0.0
 11
15.35638758151572
 21
63.18498134560582
 31
0.0
  0
LINE
  5
35E
330
1F
100
AcDbEntity
  8
0
  6
CONTINUOUS
 62
     7
100
AcDbLine
 10
15.60638756717162
 20
57.43498134560582
 30
0.0
 11
15.60638755282776
 21
71.08498134639774
 31
0.0
  0
LINE
  5
35F
330
1F
100
AcDbEntity
  8
0
  6
CONTINUOUS
 62
     7
100
AcDbLine
 10
-17.20361241848445
 20
76.83498134560568
 30
0.0
 11
-17.19361241848446
 21
76.83498134560568
 31
0.0
  0
LINE
  5
360
330
1F
100
AcDbEntity
  8
0
  6
CONTINUOUS
 62
     7
100
AcDbLine
 10
-17.20361241848445
 20
76.83498134560568
 30
0.0
 11
-17.20361241848445
 21
41.23498134560589
 31
0.0
  0
LINE
  5
361
330
1F
100
AcDbEntity
  8
0
  6
CONTINUOUS
 62
     7
100
AcDbLine
 10
-17.20361241848445
 20
41.23498134560589
 30
0.0
 11
-17.20361241848445
 21
40.93498134560593
 31
0.0
  0
LINE
  5
362
330
1F
100
AcDbEntity
  8
0
  6
CONTINUOUS
 62
     7
100
AcDbLine
 10
-17.19361241848446
 20
40.93498134560593
 30
0.0
 11
-17.20361241848445
 21
40.93498134560593
 31
0.0
  0
LINE
  5
363
330
1F
100
AcDbEntity
  8
0
  6
CONTINUOUS
 62
     7
100
AcDbLine
 10
-17.19361241848446
 20
51.98498119550288
 30
0.0
 11
-17.19361241848446
 21
54.33498119550279
 31
0.0
  0
LINE
  5
364
330
1F
100
AcDbEntity
  8
0
  6
CONTINUOUS
 62
     7
100
AcDbLine
 10
-17.20361241848445
 20
41.23498134560589
 30
0.0
 11
-17.19361241848446
 21
41.23498134560589
 31
0.0
  0
LINE
  5
365
330
1F
100
AcDbEntity
  8
0
  6
CONTINUOUS
 62
     7
100
AcDbLine
 10
70.60638758151572
 20
36.98498134560589
 30
0.0
 11
70.60638758151572
 21
37.40967651288543
 31
0.0
  0
LINE
  5
366
330
1F
100
AcDbEntity
  8
0
  6
CONTINUOUS
 62
     7
100
AcDbLine
 10
70.60638758151572
 20
57.98498134560589
 30
0.0
 11
70.60638758151572
 21
58.458818195503
 31
0.0
  0
LINE
  5
367
330
1F
100
AcDbEntity
  8
0
  6
CONTINUOUS
 62
     7
100
AcDbLine
 10
70.60638758151572
 20
58.458818195503
 30
0.0
 11
70.60638758151572
 21
62.98498134560589
 31
0.0
  0
LINE
  5
368
330
1F
100
AcDbEntity
  8
0
  6
CONTINUOUS
 62
     7
100
AcDbLine
 10
70.60638758151572
 20
73.58498134560591
 30
0.0
 11
70.60638758151572
 21
62.98498134560589
 31
0.0
  0
LINE
  5
369
330
1F
100
AcDbEntity
  8
0
  6
CONTINUOUS
 62
     7
100
AcDbLine
 10
70.60638758151572
 20
53.13498134560598
 30
0.0
 11
70.60638758151572
 21
52.78498134560584
 31
0.0
  0
LINE
  5
36A
330
1F
100
AcDbEntity
  8
0
  6
CONTINUOUS
 62
     7
100
AcDbLine
 10
70.60638758151572
 20
57.78498134560584
 30
0.0
 11
70.60638758151572
 21
57.43498134560593
 31
0.0
  0
LINE
  5
36B
330
1F
100
AcDbEntity
  8
0
  6
CONTINUOUS
 62
     7
100
AcDbLine
 10
70.60638758151572
 20
57.98498134560589
 30
0.0
 11
70.60638758151572
 21
57.78498134560584
 31
0.0
  0
LINE
  5
36C
330
1F
100
AcDbEntity
  8
0
  6
CONTINUOUS
 62
     7
100
AcDbLine
 10
70.60638758151572
 20
44.91879003882366
 30
0.0
 11
70.60638758151572
 21
44.65978029649284
 31
0.0
  0
LINE
  5
36D
330
1F
100
AcDbEntity
  8
0
  6
CONTINUOUS
 62
     7
100
AcDbLine
 10
70.60638758151572
 20
45.68508512921346
 30
0.0
 11
70.60638758151572
 21
44.91879003882366
 31
0.0
  0
LINE
  5
36E
330
1F
100
AcDbEntity
  8
0
  6
CONTINUOUS
 62
     7
100
AcDbLine
 10
70.60638758151572
 20
52.78498134560584
 30
0.0
 11
70.60638758151572
 21
45.68508512921346
 31
0.0
  0
LINE
  5
36F
330
1F
100
AcDbEntity
  8
0
  6
CONTINUOUS
 62
     7
100
AcDbLine
 10
70.60638758151572
 20
38.68498134560593
 30
0.0
 11
70.60638758151572
 21
38.38498134560598
 31
0.0
  0
LINE
  5
370
330
1F
100
AcDbEntity
  8
0
  6
CONTINUOUS
 62
     7
100
AcDbLine
 10
70.60638758151572
 20
38.38498134560598
 30
0.0
 11
70.60638758151572
 21
37.40967651288543
 31
0.0
  0
LINE
  5
371
330
1F
100
AcDbEntity
  8
0
  6
CONTINUOUS
 62
     7
100
AcDbLine
 10
70.60638758151572
 20
43.08498134560591
 30
0.0
 11
70.60638758151572
 21
42.88498134560598
 31
0.0
  0
LINE
  5
372
330
1F
100
AcDbEntity
  8
0
  6
CONTINUOUS
 62
     7
100
AcDbLine
 10
70.60638758151572
 20
42.88498134560598
 30
0.0
 11
70.60638758151572
 21
41.38498134560598
 31
0.0
  0
LINE
  5
373
330
1F
100
AcDbEntity
  8
0
  6
CONTINUOUS
 62
     7
100
AcDbLine
 10
70.60638758151572
 20
44.65978029649284
 30
0.0
 11
70.60638758151572
 21
44.56523664823033
 31
0.0
  0
LINE
  5
374
330
1F
100
AcDbEntity
  8
0
  6
CONTINUOUS
 62
     7
100
AcDbLine
 10
70.60638758151572
 20
44.56523664823033
 30
0.0
 11
70.60638758151572
 21
43.08498134560591
 31
0.0
  0
LINE
  5
375
330
1F
100
AcDbEntity
  8
0
  6
CONTINUOUS
 62
     7
100
AcDbLine
 10
70.60638758151572
 20
41.38498134560598
 30
0.0
 11
70.60638758151572
 21
38.68498134560593
 31
0.0
  0
LINE
  5
376
330
1F
100
AcDbEntity
  8
0
  6
CONTINUOUS
 62
     7
100
AcDbLine
 10
53.60638758151572
 20
57.78498134560584
 30
0.0
 11
53.60638758151572
 21
57.98498134560589
 31
0.0
  0
LINE
  5
377
330
1F
100
AcDbEntity
  8
0
  6
CONTINUOUS
 62
     7
100
AcDbLine
 10
53.60638758151572
 20
57.43498134560593
 30
0.0
 11
53.60638758151572
 21
57.78498134560584
 31
0.0
  0
LINE
  5
378
330
1F
100
AcDbEntity
  8
0
  6
CONTINUOUS
 62
     7
100
AcDbLine
 10
53.60638758151572
 20
44.91879003882366
 30
0.0
 11
53.60638758151572
 21
44.65978029649284
 31
0.0
  0
LINE
  5
379
330
1F
100
AcDbEntity
  8
0
  6
CONTINUOUS
 62
     7
100
AcDbLine
 10
53.60638758151572
 20
45.68508512921346
 30
0.0
 11
53.60638758151572
 21
44.91879003882366
 31
0.0
  0
LINE
  5
37A
330
1F
100
AcDbEntity
  8
0
  6
CONTINUOUS
 62
     7
100
AcDbLine
 10
53.60638758151572
 20
52.78498134560584
 30
0.0
 11
53.60638758151572
 21
53.13498134560598
 31
0.0
  0
LINE
  5
37B
330
1F
100
AcDbEntity
  8
0
  6
CONTINUOUS
 62
     7
100
AcDbLine
 10
53.60638758151572
 20
62.98498134560589
 30
0.0
 11
53.60638758151572
 21
73.58498134560591
 31
0.0
  0
LINE
  5
37C
330
1F
100
AcDbEntity
  8
0
  6
CONTINUOUS
 62
     7
100
AcDbLine
 10
53.60638758151572
 20
57.98498134560589
 30
0.0
 11
53.60638758151572
 21
62.98498134560589
 31
0.0
  0
LINE
  5
37D
330
1F
100
AcDbEntity
  8
0
  6
CONTINUOUS
 62
     7
100
AcDbLine
 10
53.60638758151572
 20
36.98498134560589
 30
0.0
 11
53.60638758151572
 21
37.40967651288543
 31
0.0
  0
LINE
  5
37E
330
1F
100
AcDbEntity
  8
0
  6
CONTINUOUS
 62
     7
100
AcDbLine
 10
53.60638758151572
 20
38.38498134560598
 30
0.0
 11
53.60638758151572
 21
38.68498134560593
 31
0.0
  0
LINE
  5
37F
330
1F
100
AcDbEntity
  8
0
  6
CONTINUOUS
 62
     7
100
AcDbLine
 10
53.60638758151572
 20
42.88498134560598
 30
0.0
 11
53.60638758151572
 21
44.56523664823033
 31
0.0
  0
LINE
  5
380
330
1F
100
AcDbEntity
  8
0
  6
CONTINUOUS
 62
     7
100
AcDbLine
 10
53.60638758151572
 20
37.40967651288543
 30
0.0
 11
53.60638758151572
 21
38.38498134560598
 31
0.0
  0
LINE
  5
381
330
1F
100
AcDbEntity
  8
0
  6
CONTINUOUS
 62
     7
100
AcDbLine
 10
53.60638758151572
 20
44.56523664823033
 30
0.0
 11
53.60638758151572
 21
44.65978029649284
 31
0.0
  0
LINE
  5
382
330
1F
100
AcDbEntity
  8
0
  6
CONTINUOUS
 62
     7
100
AcDbLine
 10
53.60638758151572
 20
41.38498134560552
 30
0.0
 11
53.60638758151572
 21
42.88498134560598
 31
0.0
  0
LINE
  5
383
330
1F
100
AcDbEntity
  8
0
  6
CONTINUOUS
 62
     7
100
AcDbLine
 10
53.60638758151572
 20
38.68498134560593
 30
0.0
 11
53.60638758151572
 21
41.38498134560552
 31
0.0
  0
LINE
  5
384
330
1F
100
AcDbEntity
  8
0
  6
CONTINUOUS
 62
     7
100
AcDbLine
 10
53.60638758151572
 20
45.68508512921346
 30
0.0
 11
53.60638758151572
 21
52.78498134560584
 31
0.0
  0
LINE
  5
385
330
1F
100
AcDbEntity
  8
0
  6
CONTINUOUS
 62
     7
100
AcDbLine
 10
53.40638758151567
 20
36.08498134560591
 30
0.0
 11
53.60638758151572
 21
36.08498134560603
 31
0.0
  0
LINE
  5
386
330
1F
100
AcDbEntity
  8
0
  6
CONTINUOUS
 62
     7
100
AcDbLine
 10
53.60638758151572
 20
36.98498134560589
 30
0.0
 11
53.60638758151572
 21
36.08498134560603
 31
0.0
  0
LINE
  5
387
330
1F
100
AcDbEntity
  8
0
  6
CONTINUOUS
 62
     7
100
AcDbLine
 10
53.60638758151572
 20
57.78498134560584
 30
0.0
 11
53.60638758151572
 21
57.98498134560589
 31
0.0
  0
LINE
  5
388
330
1F
100
AcDbEntity
  8
0
  6
CONTINUOUS
 62
     7
100
AcDbLine
 10
53.60638758151572
 20
57.43498134560593
 30
0.0
 11
53.60638758151572
 21
57.78498134560584
 31
0.0
  0
LINE
  5
389
330
1F
100
AcDbEntity
  8
0
  6
CONTINUOUS
 62
     7
100
AcDbLine
 10
53.60638758151572
 20
44.91879003882366
 30
0.0
 11
53.60638758151572
 21
44.65978029649284
 31
0.0
  0
LINE
  5
38A
330
1F
100
AcDbEntity
  8
0
  6
CONTINUOUS
 62
     7
100
AcDbLine
 10
53.60638758151572
 20
45.68508512921346
 30
0.0
 11
53.60638758151572
 21
44.91879003882366
 31
0.0
  0
LINE
  5
38B
330
1F
100
AcDbEntity
  8
0
  6
CONTINUOUS
 62
     7
100
AcDbLine
 10
53.60638758151572
 20
52.78498134560584
 30
0.0
 11
53.60638758151572
 21
53.13498134560598
 31
0.0
  0
LINE
  5
38C
330
1F
100
AcDbEntity
  8
0
  6
CONTINUOUS
 62
     7
100
AcDbLine
 10
53.60638758151572
 20
62.98498134560589
 30
0.0
 11
53.60638758151572
 21
73.58498134560591
 31
0.0
  0
LINE
  5
38D
330
1F
100
AcDbEntity
  8
0
  6
CONTINUOUS
 62
     7
100
AcDbLine
 10
53.60638758151572
 20
57.98498134560589
 30
0.0
 11
53.60638758151572
 21
62.98498134560589
 31
0.0
  0
LINE
  5
38E
330
1F
100
AcDbEntity
  8
0
  6
CONTINUOUS
 62
     7
100
AcDbLine
 10
53.60638758151572
 20
36.98498134560589
 30
0.0
 11
53.60638758151572
 21
37.40967651288543
 31
0.0
  0
LINE
  5
38F
330
1F
100
AcDbEntity
  8
0
  6
CONTINUOUS
 62
     7
100
AcDbLine
 10
53.60638758151572
 20
38.38498134560598
 30
0.0
 11
53.60638758151572
 21
38.68498134560593
 31
0.0
  0
LINE
  5
390
330
1F
100
AcDbEntity
  8
0
  6
CONTINUOUS
 62
     7
100
AcDbLine
 10
53.60638758151572
 20
42.88498134560598
 30
0.0
 11
53.60638758151572
 21
44.56523664823033
 31
0.0
  0
LINE
  5
391
330
1F
100
AcDbEntity
  8
0
  6
CONTINUOUS
 62
     7
100
AcDbLine
 10
53.60638758151572
 20
37.40967651288543
 30
0.0
 11
53.60638758151572
 21
38.38498134560598
 31
0.0
  0
LINE
  5
392
330
1F
100
AcDbEntity
  8
0
  6
CONTINUOUS
 62
     7
100
AcDbLine
 10
53.60638758151572
 20
44.56523664823033
 30
0.0
 11
53.60638758151572
 21
44.65978029649284
 31
0.0
  0
LINE
  5
393
330
1F
100
AcDbEntity
  8
0
  6
CONTINUOUS
 62
     7
100
AcDbLine
 10
53.60638758151572
 20
41.38498134560552
 30
0.0
 11
53.60638758151572
 21
42.88498134560598
 31
0.0
  0
LINE
  5
394
330
1F
100
AcDbEntity
  8
0
  6
CONTINUOUS
 62
     7
100
AcDbLine
 10
53.60638758151572
 20
38.68498134560593
 30
0.0
 11
53.60638758151572
 21
41.38498134560552
 31
0.0
  0
LINE
  5
395
330
1F
100
AcDbEntity
  8
0
  6
CONTINUOUS
 62
     7
100
AcDbLine
 10
53.40638758151567
 20
41.38498134560598
 30
0.0
 11
53.40638758151567
 21
36.08498134560591
 31
0.0
  0
LINE
  5
396
330
1F
100
AcDbEntity
  8
0
  6
CONTINUOUS
 62
     7
100
AcDbLine
 10
70.80638758151554
 20
52.78498134560584
 30
0.0
 11
70.80638758151554
 21
57.78498134560584
 31
0.0
  0
LINE
  5
397
330
1F
100
AcDbEntity
  8
0
  6
CONTINUOUS
 62
     7
100
AcDbLine
 10
70.60638758151572
 20
57.78498134560584
 30
0.0
 11
70.80638758151554
 21
57.78498134560584
 31
0.0
  0
LINE
  5
398
330
1F
100
AcDbEntity
  8
0
  6
CONTINUOUS
 62
     7
100
AcDbLine
 10
53.60638758151572
 20
41.38498134560552
 30
0.0
 11
53.40638758151567
 21
41.38498134560598
 31
0.0
  0
LINE
  5
399
330
1F
100
AcDbEntity
  8
0
  6
CONTINUOUS
 62
     7
100
AcDbLine
 10
53.40638758151567
 20
57.78498134560584
 30
0.0
 11
53.40638758151567
 21
52.78498134560584
 31
0.0
  0
LINE
  5
39A
330
1F
100
AcDbEntity
  8
0
  6
CONTINUOUS
 62
     7
100
AcDbLine
 10
53.40638758151567
 20
52.78498134560584
 30
0.0
 11
53.60638758151572
 21
52.78498134560584
 31
0.0
  0
LINE
  5
39B
330
1F
100
AcDbEntity
  8
0
  6
CONTINUOUS
 62
     7
100
AcDbLine
 10
53.60638758151572
 20
45.68508512921346
 30
0.0
 11
53.60638758151572
 21
52.78498134560584
 31
0.0
  0
LINE
  5
39C
330
1F
100
AcDbEntity
  8
0
  6
CONTINUOUS
 62
     7
100
AcDbLine
 10
53.40638758151567
 20
57.78498134560584
 30
0.0
 11
53.60638758151572
 21
57.78498134560584
 31
0.0
  0
LINE
  5
39D
330
1F
100
AcDbEntity
  8
0
  6
CONTINUOUS
 62
     7
100
AcDbLine
 10
70.80638758151554
 20
41.38498134560598
 30
0.0
 11
70.80638758151554
 21
36.08498134560591
 31
0.0
  0
LINE
  5
39E
330
1F
100
AcDbEntity
  8
0
  6
CONTINUOUS
 62
     7
100
AcDbLine
 10
70.60638758151572
 20
36.08498134560603
 30
0.0
 11
70.80638758151554
 21
36.08498134560591
 31
0.0
  0
LINE
  5
39F
330
1F
100
AcDbEntity
  8
0
  6
CONTINUOUS
 62
     7
100
AcDbLine
 10
70.60638758151572
 20
52.78498134560584
 30
0.0
 11
70.80638758151554
 21
52.78498134560584
 31
0.0
  0
LINE
  5
3A0
330
1F
100
AcDbEntity
  8
0
  6
CONTINUOUS
 62
     7
100
AcDbLine
 10
70.60638758151572
 20
41.38498134560598
 30
0.0
 11
70.80638758151554
 21
41.38498134560598
 31
0.0
  0
LINE
  5
3A1
330
1F
100
AcDbEntity
  8
0
  6
CONTINUOUS
 62
     7
100
AcDbLine
 10
70.60638758151572
 20
36.98498134560589
 30
0.0
 11
70.60638758151572
 21
36.08498134560603
 31
0.0
  0
LINE
  5
3A2
330
1F
100
AcDbEntity
  8
0
  6
CONTINUOUS
 62
     7
100
AcDbLine
 10
70.60638758151572
 20
36.98498134560589
 30
0.0
 11
70.60638758151572
 21
37.40967651288543
 31
0.0
  0
LINE
  5
3A3
330
1F
100
AcDbEntity
  8
0
  6
CONTINUOUS
 62
     7
100
AcDbLine
 10
70.60638758151572
 20
57.98498134560589
 30
0.0
 11
70.60638758151572
 21
58.458818195503
 31
0.0
  0
LINE
  5
3A4
330
1F
100
AcDbEntity
  8
0
  6
CONTINUOUS
 62
     7
100
AcDbLine
 10
70.60638758151572
 20
58.458818195503
 30
0.0
 11
70.60638758151572
 21
62.98498134560589
 31
0.0
  0
LINE
  5
3A5
330
1F
100
AcDbEntity
  8
0
  6
CONTINUOUS
 62
     7
100
AcDbLine
 10
70.60638758151572
 20
73.58498134560591
 30
0.0
 11
70.60638758151572
 21
62.98498134560589
 31
0.0
  0
LINE
  5
3A6
330
1F
100
AcDbEntity
  8
0
  6
CONTINUOUS
 62
     7
100
AcDbLine
 10
70.60638758151572
 20
53.13498134560598
 30
0.0
 11
70.60638758151572
 21
52.78498134560584
 31
0.0
  0
LINE
  5
3A7
330
1F
100
AcDbEntity
  8
0
  6
CONTINUOUS
 62
     7
100
AcDbLine
 10
70.60638758151572
 20
57.78498134560584
 30
0.0
 11
70.60638758151572
 21
57.43498134560593
 31
0.0
  0
LINE
  5
3A8
330
1F
100
AcDbEntity
  8
0
  6
CONTINUOUS
 62
     7
100
AcDbLine
 10
70.60638758151572
 20
57.98498134560589
 30
0.0
 11
70.60638758151572
 21
57.78498134560584
 31
0.0
  0
LINE
  5
3A9
330
1F
100
AcDbEntity
  8
0
  6
CONTINUOUS
 62
     7
100
AcDbLine
 10
70.60638758151572
 20
44.91879003882366
 30
0.0
 11
70.60638758151572
 21
44.65978029649284
 31
0.0
  0
LINE
  5
3AA
330
1F
100
AcDbEntity
  8
0
  6
CONTINUOUS
 62
     7
100
AcDbLine
 10
70.60638758151572
 20
45.68508512921346
 30
0.0
 11
70.60638758151572
 21
44.91879003882366
 31
0.0
  0
LINE
  5
3AB
330
1F
100
AcDbEntity
  8
0
  6
CONTINUOUS
 62
     7
100
AcDbLine
 10
70.60638758151572
 20
52.78498134560584
 30
0.0
 11
70.60638758151572
 21
45.68508512921346
 31
0.0
  0
LINE
  5
3AC
330
1F
100
AcDbEntity
  8
0
  6
CONTINUOUS
 62
     7
100
AcDbLine
 10
70.60638758151572
 20
38.68498134560593
 30
0.0
 11
70.60638758151572
 21
38.38498134560598
 31
0.0
  0
LINE
  5
3AD
330
1F
100
AcDbEntity
  8
0
  6
CONTINUOUS
 62
     7
100
AcDbLine
 10
70.60638758151572
 20
38.38498134560598
 30
0.0
 11
70.60638758151572
 21
37.40967651288543
 31
0.0
  0
LINE
  5
3AE
330
1F
100
AcDbEntity
  8
0
  6
CONTINUOUS
 62
     7
100
AcDbLine
 10
70.60638758151572
 20
43.08498134560591
 30
0.0
 11
70.60638758151572
 21
42.88498134560598
 31
0.0
  0
LINE
  5
3AF
330
1F
100
AcDbEntity
  8
0
  6
CONTINUOUS
 62
     7
100
AcDbLine
 10
70.60638758151572
 20
42.88498134560598
 30
0.0
 11
70.60638758151572
 21
41.38498134560598
 31
0.0
  0
LINE
  5
3B0
330
1F
100
AcDbEntity
  8
0
  6
CONTINUOUS
 62
     7
100
AcDbLine
 10
70.60638758151572
 20
44.65978029649284
 30
0.0
 11
70.60638758151572
 21
44.56523664823033
 31
0.0
  0
LINE
  5
3B1
330
1F
100
AcDbEntity
  8
0
  6
CONTINUOUS
 62
     7
100
AcDbLine
 10
70.60638758151572
 20
44.56523664823033
 30
0.0
 11
70.60638758151572
 21
43.08498134560591
 31
0.0
  0
LINE
  5
3B2
330
1F
100
AcDbEntity
  8
0
  6
CONTINUOUS
 62
     7
100
AcDbLine
 10
70.60638758151572
 20
41.38498134560598
 30
0.0
 11
70.60638758151572
 21
38.68498134560593
 31
0.0
  0
LINE
  5
3B3
330
1F
100
AcDbEntity
  8
0
  6
CONTINUOUS
 62
     7
100
AcDbLine
 10
-58.14361241848428
 20
36.08498134560603
 30
0.0
 11
-58.14361241848428
 21
31.26305120617428
 31
0.0
  0
LINE
  5
3B4
330
1F
100
AcDbEntity
  8
0
  6
CONTINUOUS
 62
     7
100
AcDbLine
 10
-62.64361241848428
 20
36.08498134560603
 30
0.0
 11
-62.64361241848428
 21
31.26305120617428
 31
0.0
  0
LINE
  5
3B5
330
1F
100
AcDbEntity
  8
0
  6
CONTINUOUS
 62
     7
100
AcDbLine
 10
15.33354440811468
 20
43.86315593865811
 30
0.0
 11
7.83821252753773
 21
36.36782405808071
 31
0.0
  0
LINE
  5
3B6
330
1F
100
AcDbEntity
  8
0
  6
CONTINUOUS
 62
     7
100
AcDbLine
 10
14.87392500034366
 20
40.00942398119139
 30
0.0
 11
22.02930751769054
 21
32.85404146384406
 31
0.0
  0
LINE
  5
3B7
330
1F
100
AcDbEntity
  8
0
  6
CONTINUOUS
 62
     7
100
AcDbLine
 10
15.55780847682672
 20
41.8246783075731
 30
0.0
 11
15.01534635658072
 21
41.28221618732721
 31
0.0
  0
LINE
  5
3B8
330
1F
100
AcDbEntity
  8
0
  6
CONTINUOUS
 62
     7
100
AcDbLine
 10
15.61638712058971
 20
44.14599865113269
 30
0.0
 11
15.33354453854554
 21
44.42884123317629
 31
0.0
  0
LINE
  5
3B9
330
1F
100
AcDbEntity
  8
0
  6
CONTINUOUS
 62
     7
100
AcDbLine
 10
15.61638712058971
 20
44.14599865113269
 30
0.0
 11
15.61638712058971
 21
44.06761156080427
 31
0.0
  0
LINE
  5
3BA
330
1F
100
AcDbEntity
  8
0
  6
CONTINUOUS
 62
     7
100
AcDbLine
 10
15.55780847682672
 20
41.8246783075731
 30
0.0
 11
15.51638712058957
 21
41.86609966381036
 31
0.0
  0
LINE
  5
3BB
330
1F
100
AcDbEntity
  8
0
  6
CONTINUOUS
 62
     7
100
AcDbLine
 10
15.61638712058971
 20
41.96609966381038
 30
0.0
 11
15.61638712058971
 21
44.06761156080427
 31
0.0
  0
LINE
  5
3BC
330
1F
100
AcDbEntity
  8
0
  6
CONTINUOUS
 62
     7
100
AcDbLine
 10
14.87392500034366
 20
40.00942398119139
 30
0.0
 11
11.69194448500366
 21
36.82744346585184
 31
0.0
  0
LINE
  5
3BD
330
1F
100
AcDbEntity
  8
0
  6
CONTINUOUS
 62
     7
100
AcDbLine
 10
11.69194448500366
 20
36.82744346585184
 30
0.0
 11
11.19696973817372
 21
36.33246871902134
 31
0.0
  0
LINE
  5
3BE
330
1F
100
AcDbEntity
  8
0
  6
CONTINUOUS
 62
     7
100
AcDbLine
 10
15.51638712058957
 20
41.86609966381036
 30
0.0
 11
12.11014253653775
 21
38.459855079759
 31
0.0
  0
LINE
  5
3BF
330
1F
100
AcDbEntity
  8
0
  6
CONTINUOUS
 62
     7
100
AcDbLine
 10
15.51638712058957
 20
41.86609966381036
 30
0.0
 11
15.51638712058957
 21
43.96761156080413
 31
0.0
  0
LINE
  5
3C0
330
1F
100
AcDbEntity
  8
0
  6
CONTINUOUS
 62
     7
100
AcDbLine
 10
15.01534635658072
 20
41.28221618732721
 30
0.0
 11
15.3688997471736
 21
40.92866279673388
 31
0.0
  0
LINE
  5
3C1
330
1F
100
AcDbEntity
  8
0
  6
CONTINUOUS
 62
     7
100
AcDbLine
 10
15.3688997471736
 20
40.50439872802201
 30
0.0
 11
15.3688997471736
 21
40.92866279673388
 31
0.0
  0
LINE
  5
3C2
330
1F
100
AcDbEntity
  8
0
  6
CONTINUOUS
 62
     7
100
AcDbLine
 10
15.3688997471736
 20
40.50439872802201
 30
0.0
 11
14.87392500034366
 21
40.00942398119139
 31
0.0
  0
LINE
  5
3C3
330
1F
100
AcDbEntity
  8
0
  6
CONTINUOUS
 62
     7
100
AcDbLine
 10
8.64531930872363
 20
36.18498134560593
 30
0.0
 11
9.18171533505461
 21
36.72137752541141
 31
0.0
  0
LINE
  5
3C4
330
1F
100
AcDbEntity
  8
0
  6
CONTINUOUS
 62
     7
100
AcDbLine
 10
7.27252723301967
 20
36.36782392764951
 30
0.0
 11
7.55536994549357
 21
36.6506666401242
 31
0.0
  0
LINE
  5
3C5
330
1F
100
AcDbEntity
  8
0
  6
CONTINUOUS
 62
     7
100
AcDbLine
 10
7.63375690539169
 20
36.08498134560603
 30
0.0
 11
8.54531930872372
 21
36.08498134560603
 31
0.0
  0
LINE
  5
3C6
330
1F
100
AcDbEntity
  8
0
  6
CONTINUOUS
 62
     7
100
AcDbLine
 10
8.82816202119875
 20
36.08498134560603
 30
0.0
 11
9.73526880238455
 21
36.08498134560603
 31
0.0
  0
LINE
  5
3C7
330
1F
100
AcDbEntity
  8
0
  6
CONTINUOUS
 62
     7
100
AcDbLine
 10
8.54531930872372
 20
36.08498134560603
 30
0.0
 11
8.82816202119875
 21
36.08498134560603
 31
0.0
  0
LINE
  5
3C8
330
1F
100
AcDbEntity
  8
0
  6
CONTINUOUS
 62
     7
100
AcDbLine
 10
15.3688997471736
 20
40.92866279673388
 30
0.0
 11
10.77270566946163
 21
36.33246871902134
 31
0.0
  0
LINE
  5
3C9
330
1F
100
AcDbEntity
  8
0
  6
CONTINUOUS
 62
     7
100
AcDbLine
 10
10.41915227886761
 20
36.68602210961478
 30
0.0
 11
10.77270566946163
 21
36.33246871902134
 31
0.0
  0
LINE
  5
3CA
330
1F
100
AcDbEntity
  8
0
  6
CONTINUOUS
 62
     7
100
AcDbLine
 10
9.46455804752873
 20
37.00422023788599
 30
0.0
 11
9.18171533505461
 21
36.72137752541141
 31
0.0
  0
LINE
  5
3CB
330
1F
100
AcDbEntity
  8
0
  6
CONTINUOUS
 62
     7
100
AcDbLine
 10
8.54531976610861
 20
37.64061580683142
 30
0.0
 11
8.43925342197758
 21
37.53455011660742
 31
0.0
  0
LINE
  5
3CC
330
1F
100
AcDbEntity
  8
0
  6
CONTINUOUS
 62
     7
100
AcDbLine
 10
14.06075265936465
 20
43.15604870008644
 30
0.0
 11
12.64653909699064
 21
41.74183513771334
 31
0.0
  0
LINE
  5
3CD
330
1F
100
AcDbEntity
  8
0
  6
CONTINUOUS
 62
     7
100
AcDbLine
 10
14.16681834958763
 20
43.26211504421838
 30
0.0
 11
14.06075265936465
 21
43.15604870008644
 31
0.0
  0
LINE
  5
3CE
330
1F
100
AcDbEntity
  8
0
  6
CONTINUOUS
 62
     7
100
AcDbLine
 10
12.64653909699064
 20
41.74183513771334
 30
0.0
 11
9.95953332848262
 21
39.05482936920441
 31
0.0
  0
LINE
  5
3CF
330
1F
100
AcDbEntity
  8
0
  6
CONTINUOUS
 62
     7
100
AcDbLine
 10
12.15156389277558
 20
38.41843372352173
 30
0.0
 11
12.11014253653775
 21
38.459855079759
 31
0.0
  0
LINE
  5
3D0
330
1F
100
AcDbEntity
  8
0
  6
CONTINUOUS
 62
     7
100
AcDbLine
 10
12.11014253653775
 20
38.459855079759
 30
0.0
 11
11.65658914594474
 21
38.91340847035224
 31
0.0
  0
LINE
  5
3D1
330
1F
100
AcDbEntity
  8
0
  6
CONTINUOUS
 62
     7
100
AcDbLine
 10
10.87877160990161
 20
38.4184338002591
 30
0.0
 11
11.37374643347062
 21
38.91340847035224
 31
0.0
  0
LINE
  5
3D2
330
1F
100
AcDbEntity
  8
0
  6
CONTINUOUS
 62
     7
100
AcDbLine
 10
10.87877160990161
 20
38.4184338002591
 30
0.0
 11
10.59592889742771
 21
38.13559108778441
 31
0.0
  0
LINE
  5
3D3
330
1F
100
AcDbEntity
  8
0
  6
CONTINUOUS
 62
     7
100
AcDbLine
 10
15.05070182607165
 20
44.1459985207016
 30
0.0
 11
14.16681834958763
 21
43.26211504421838
 31
0.0
  0
LINE
  5
3D4
330
1F
100
AcDbEntity
  8
0
  6
CONTINUOUS
 62
     7
100
AcDbLine
 10
15.33354440811468
 20
43.86315593865811
 30
0.0
 11
15.05070182607165
 21
44.1459985207016
 31
0.0
  0
LINE
  5
3D5
330
1F
100
AcDbEntity
  8
0
  6
CONTINUOUS
 62
     7
100
AcDbLine
 10
15.01534635658072
 20
41.28221618732721
 30
0.0
 11
12.15156389277558
 21
38.41843372352173
 31
0.0
  0
LINE
  5
3D6
330
1F
100
AcDbEntity
  8
0
  6
CONTINUOUS
 62
     7
100
AcDbLine
 10
12.15156389277558
 20
38.41843372352173
 30
0.0
 11
10.66663965228372
 21
36.93350948302998
 31
0.0
  0
LINE
  5
3D7
330
1F
100
AcDbEntity
  8
0
  6
CONTINUOUS
 62
     7
100
AcDbLine
 10
8.43925342197758
 20
37.53455011660742
 30
0.0
 11
7.55536994549357
 21
36.6506666401242
 31
0.0
  0
LINE
  5
3D8
330
1F
100
AcDbEntity
  8
0
  6
CONTINUOUS
 62
     7
100
AcDbLine
 10
15.05070182607165
 20
44.1459985207016
 30
0.0
 11
15.33354453854554
 21
44.42884123317629
 31
0.0
  0
LINE
  5
3D9
330
1F
100
AcDbEntity
  8
0
  6
CONTINUOUS
 62
     7
100
AcDbLine
 10
9.95953332848262
 20
39.05482936920441
 30
0.0
 11
8.54531976610861
 21
37.64061580683142
 31
0.0
  0
LINE
  5
3DA
330
1F
100
AcDbEntity
  8
0
  6
CONTINUOUS
 62
     7
100
AcDbLine
 10
10.03024354921558
 20
37.56990558609789
 30
0.0
 11
9.46455804752873
 21
37.00422023788599
 31
0.0
  0
LINE
  5
3DB
330
1F
100
AcDbEntity
  8
0
  6
CONTINUOUS
 62
     7
100
AcDbLine
 10
10.66663965228372
 20
36.93350948302998
 30
0.0
 11
10.52521821930873
 21
37.07493091600463
 31
0.0
  0
LINE
  5
3DC
330
1F
100
AcDbEntity
  8
0
  6
CONTINUOUS
 62
     7
100
AcDbLine
 10
10.59592889742771
 20
38.13559108778441
 30
0.0
 11
10.03024354921558
 21
37.56990558609789
 31
0.0
  0
LINE
  5
3DD
330
1F
100
AcDbEntity
  8
0
  6
CONTINUOUS
 62
     7
100
AcDbLine
 10
11.19696973817372
 20
36.33246871902134
 30
0.0
 11
10.77270566946163
 21
36.33246871902134
 31
0.0
  0
LINE
  5
3DE
330
1F
100
AcDbEntity
  8
0
  6
CONTINUOUS
 62
     7
100
AcDbLine
 10
9.87669015862275
 20
36.14355998936878
 30
0.0
 11
10.41915227886761
 21
36.68602210961478
 31
0.0
  0
LINE
  5
3DF
330
1F
100
AcDbEntity
  8
0
  6
CONTINUOUS
 62
     7
100
AcDbLine
 10
10.41915227886761
 20
36.68602210961478
 30
0.0
 11
10.66663965228372
 21
36.93350948302998
 31
0.0
  0
LINE
  5
3E0
330
1F
100
AcDbEntity
  8
0
  6
CONTINUOUS
 62
     7
100
AcDbLine
 10
8.64531930872363
 20
36.18498134560593
 30
0.0
 11
8.54531930872372
 21
36.08498134560603
 31
0.0
  0
LINE
  5
3E1
330
1F
100
AcDbEntity
  8
0
  6
CONTINUOUS
 62
     7
100
AcDbLine
 10
7.5553698150627
 20
36.08498134560603
 30
0.0
 11
7.27252723301967
 21
36.36782392764951
 31
0.0
  0
LINE
  5
3E2
330
1F
100
AcDbEntity
  8
0
  6
CONTINUOUS
 62
     7
100
AcDbLine
 10
7.63375690539169
 20
36.08498134560603
 30
0.0
 11
7.5553698150627
 21
36.08498134560603
 31
0.0
  0
LINE
  5
3E3
330
1F
100
AcDbEntity
  8
0
  6
CONTINUOUS
 62
     7
100
AcDbLine
 10
11.69194448500366
 20
36.82744346585184
 30
0.0
 11
18.84732700235168
 21
29.67206094850462
 31
0.0
  0
LINE
  5
3E4
330
1F
100
AcDbEntity
  8
0
  6
CONTINUOUS
 62
     7
100
AcDbLine
 10
22.02930751769054
 20
32.85404146384406
 30
0.0
 11
18.84732700235168
 21
29.67206094850462
 31
0.0
  0
LINE
  5
3E5
330
1F
100
AcDbEntity
  8
0
  6
CONTINUOUS
 62
     7
100
AcDbLine
 10
15.46994097210859
 20
44.5652370128314
 30
0.0
 11
15.33354453854554
 21
44.42884123317629
 31
0.0
  0
LINE
  5
3E6
330
1F
100
AcDbEntity
  8
0
  6
CONTINUOUS
 62
     7
100
AcDbLine
 10
7.09765464780662
 20
37.32432153842694
 30
0.0
 11
14.37704775329576
 21
44.60371464391642
 31
0.0
  0
LINE
  5
3E7
330
1F
100
AcDbEntity
  8
0
  6
CONTINUOUS
 62
     7
100
AcDbLine
 10
7.27252723301967
 20
36.36782392764951
 30
0.0
 11
7.55536994549357
 21
36.6506666401242
 31
0.0
  0
LINE
  5
3E8
330
1F
100
AcDbEntity
  8
0
  6
CONTINUOUS
 62
     7
100
AcDbLine
 10
7.27252723301967
 20
36.36782392764951
 30
0.0
 11
7.13613227889164
 21
36.23142831961366
 31
0.0
  0
LINE
  5
3E9
330
1F
100
AcDbEntity
  8
0
  6
CONTINUOUS
 62
     7
100
AcDbLine
 10
7.02683937784968
 20
37.39513680838343
 30
0.0
 11
7.09765464780662
 21
37.32432153842694
 31
0.0
  0
LINE
  5
3EA
330
1F
100
AcDbEntity
  8
0
  6
CONTINUOUS
 62
     7
100
AcDbLine
 10
8.54531976610861
 20
37.64061580683142
 30
0.0
 11
8.43925342197758
 21
37.53455011660742
 31
0.0
  0
LINE
  5
3EB
330
1F
100
AcDbEntity
  8
0
  6
CONTINUOUS
 62
     7
100
AcDbLine
 10
14.06075265936465
 20
43.15604870008644
 30
0.0
 11
12.64653909699064
 21
41.74183513771334
 31
0.0
  0
LINE
  5
3EC
330
1F
100
AcDbEntity
  8
0
  6
CONTINUOUS
 62
     7
100
AcDbLine
 10
14.37704775329576
 20
44.60371464391642
 30
0.0
 11
14.30623248333973
 21
44.67452991387256
 31
0.0
  0
LINE
  5
3ED
330
1F
100
AcDbEntity
  8
0
  6
CONTINUOUS
 62
     7
100
AcDbLine
 10
14.16681834958763
 20
43.26211504421838
 30
0.0
 11
14.06075265936465
 21
43.15604870008644
 31
0.0
  0
LINE
  5
3EE
330
1F
100
AcDbEntity
  8
0
  6
CONTINUOUS
 62
     7
100
AcDbLine
 10
12.64653909699064
 20
41.74183513771334
 30
0.0
 11
9.95953332848262
 21
39.05482936920441
 31
0.0
  0
LINE
  5
3EF
330
1F
100
AcDbEntity
  8
0
  6
CONTINUOUS
 62
     7
100
AcDbLine
 10
15.05070182607165
 20
44.1459985207016
 30
0.0
 11
14.16681834958763
 21
43.26211504421838
 31
0.0
  0
LINE
  5
3F0
330
1F
100
AcDbEntity
  8
0
  6
CONTINUOUS
 62
     7
100
AcDbLine
 10
8.43925342197758
 20
37.53455011660742
 30
0.0
 11
7.55536994549357
 21
36.6506666401242
 31
0.0
  0
LINE
  5
3F1
330
1F
100
AcDbEntity
  8
0
  6
CONTINUOUS
 62
     7
100
AcDbLine
 10
15.05070182607165
 20
44.1459985207016
 30
0.0
 11
15.33354453854554
 21
44.42884123317629
 31
0.0
  0
LINE
  5
3F2
330
1F
100
AcDbEntity
  8
0
  6
CONTINUOUS
 62
     7
100
AcDbLine
 10
9.95953332848262
 20
39.05482936920441
 30
0.0
 11
8.54531976610861
 21
37.64061580683142
 31
0.0
  0
LINE
  5
3F3
330
1F
100
AcDbEntity
  8
0
  6
CONTINUOUS
 62
     7
100
AcDbLine
 10
9.18171586917765
 20
39.54980411603492
 30
0.0
 11
12.96473714852459
 21
43.33282539538288
 31
0.0
  0
LINE
  5
3F4
330
1F
100
AcDbEntity
  8
0
  6
CONTINUOUS
 62
     7
100
AcDbLine
 10
7.04158863062867
 20
37.40967687748639
 30
0.0
 11
8.05034501927867
 21
38.41843326613639
 31
0.0
  0
LINE
  5
3F5
330
1F
100
AcDbEntity
  8
0
  6
CONTINUOUS
 62
     7
100
AcDbLine
 10
13.28293520005968
 20
43.65102344691684
 30
0.0
 11
14.29169241423665
 21
44.65978066109381
 31
0.0
  0
LINE
  5
3F6
330
1F
100
AcDbEntity
  8
0
  6
CONTINUOUS
 62
     7
100
AcDbLine
 10
12.96473714852459
 20
43.33282539538288
 30
0.0
 11
13.28293520005968
 21
43.65102344691684
 31
0.0
  0
LINE
  5
3F7
330
1F
100
AcDbEntity
  8
0
  6
CONTINUOUS
 62
     7
100
AcDbLine
 10
8.05034501927867
 20
38.41843326613639
 30
0.0
 11
9.18171586917765
 21
39.54980411603492
 31
0.0
  0
LINE
  5
3F8
330
1F
100
AcDbEntity
  8
0
  6
CONTINUOUS
 62
     7
100
AcDbLine
 10
9.18171586917765
 20
39.54980411603492
 30
0.0
 11
12.96473714852459
 21
43.33282539538288
 31
0.0
  0
LINE
  5
3F9
330
1F
100
AcDbEntity
  8
0
  6
CONTINUOUS
 62
     7
100
AcDbLine
 10
7.04158863062867
 20
37.40967687748639
 30
0.0
 11
8.05034501927867
 21
38.41843326613639
 31
0.0
  0
LINE
  5
3FA
330
1F
100
AcDbEntity
  8
0
  6
CONTINUOUS
 62
     7
100
AcDbLine
 10
13.28293520005968
 20
43.65102344691684
 30
0.0
 11
14.29169241423665
 21
44.65978066109381
 31
0.0
  0
LINE
  5
3FB
330
1F
100
AcDbEntity
  8
0
  6
CONTINUOUS
 62
     7
100
AcDbLine
 10
12.96473714852459
 20
43.33282539538288
 30
0.0
 11
13.28293520005968
 21
43.65102344691684
 31
0.0
  0
LINE
  5
3FC
330
1F
100
AcDbEntity
  8
0
  6
CONTINUOUS
 62
     7
100
AcDbLine
 10
8.05034501927867
 20
38.41843326613639
 30
0.0
 11
9.18171586917765
 21
39.54980411603492
 31
0.0
  0
LINE
  5
3FD
330
1F
100
AcDbEntity
  8
0
  6
CONTINUOUS
 62
     7
100
AcDbLine
 10
9.46455804752873
 20
37.00422023788599
 30
0.0
 11
9.18171533505461
 21
36.72137752541141
 31
0.0
  0
LINE
  5
3FE
330
1F
100
AcDbEntity
  8
0
  6
CONTINUOUS
 62
     7
100
AcDbLine
 10
10.87877160990161
 20
38.4184338002591
 30
0.0
 11
11.16161432237664
 21
38.13559108778452
 31
0.0
  0
LINE
  5
3FF
330
1F
100
AcDbEntity
  8
0
  6
CONTINUOUS
 62
     7
100
AcDbLine
 10
10.87877160990161
 20
38.4184338002591
 30
0.0
 11
10.59592889742771
 21
38.13559108778441
 31
0.0
  0
LINE
  5
400
330
1F
100
AcDbEntity
  8
0
  6
CONTINUOUS
 62
     7
100
AcDbLine
 10
10.03024354921558
 20
37.56990558609789
 30
0.0
 11
9.46455804752873
 21
37.00422023788599
 31
0.0
  0
LINE
  5
401
330
1F
100
AcDbEntity
  8
0
  6
CONTINUOUS
 62
     7
100
AcDbLine
 10
11.16161432237664
 20
37.71132701907243
 30
0.0
 11
9.88882211624059
 21
36.43853481293672
 31
0.0
  0
LINE
  5
402
330
1F
100
AcDbEntity
  8
0
  6
CONTINUOUS
 62
     7
100
AcDbLine
 10
10.59592889742771
 20
38.13559108778441
 30
0.0
 11
10.03024354921558
 21
37.56990558609789
 31
0.0
  0
LINE
  5
403
330
1F
100
AcDbEntity
  8
0
  6
CONTINUOUS
 62
     7
100
AcDbLine
 10
9.18171533505461
 20
36.72137752541141
 30
0.0
 11
9.46455804752873
 21
36.43853481293672
 31
0.0
  0
LINE
  5
404
330
1F
100
AcDbEntity
  8
1
  6
CONTINUOUS
 62
     7
100
AcDbLine
 10
-6.95361290968845
 20
136.7218078096819
 30
0.0
 11
5.4963870903116
 21
136.7218078096819
 31
0.0
  0
LINE
  5
405
330
1F
100
AcDbEntity
  8
0
  6
CONTINUOUS
 62
     7
100
AcDbLine
 10
-6.95361290968845
 20
136.7218078096819
 30
0.0
 11
-6.95361290968845
 21
130.3218078096818
 31
0.0
  0
LINE
  5
406
330
1F
100
AcDbEntity
  8
0
  6
CONTINUOUS
 62
     7
100
AcDbLine
 10
5.4963870903116
 20
136.7218078096819
 30
0.0
 11
5.4963870903116
 21
137.7218078096818
 31
0.0
  0
LINE
  5
407
330
1F
100
AcDbEntity
  8
1
  6
CONTINUOUS
 62
     7
100
AcDbLine
 10
-6.95361290968845
 20
130.3218078096818
 30
0.0
 11
5.4963870903116
 21
130.3218078096818
 31
0.0
  0
LINE
  5
408
330
1F
100
AcDbEntity
  8
0
  6
CONTINUOUS
 62
     7
100
AcDbLine
 10
5.4963870903116
 20
130.3218078096818
 30
0.0
 11
5.4963870903116
 21
136.7218078096819
 31
0.0
  0
LINE
  5
409
330
1F
100
AcDbEntity
  8
0
  6
CONTINUOUS
 62
     7
100
AcDbLine
 10
-6.95361290968845
 20
130.3218078096818
 30
0.0
 11
-6.95361290968845
 21
129.3218078096818
 31
0.0
  0
ARC
  5
40A
330
1F
100
AcDbEntity
  8
0
  6
CONTINUOUS
 62
     7
100
AcDbCircle
 10
-55.39361241848428
 20
80.4499813456058
 30
0.0
 40
0.4999999999997468
100
AcDbArc
 50
4.01398721805469
 51
90.0
  0
ARC
  5
40B
330
1F
100
AcDbEntity
  8
0
  6
CONTINUOUS
 62
     7
100
AcDbCircle
 10
-65.39361241848428
 20
80.4499813456058
 30
0.0
 40
0.5
100
AcDbArc
 50
90.0
 51
175.9860127819471
  0
ARC
  5
40C
330
1F
100
AcDbEntity
  8
0
  6
CONTINUOUS
 62
     7
100
AcDbCircle
 10
9.40638709031168
 20
80.4499813456058
 30
0.0
 40
0.4999999999997547
100
AcDbArc
 50
4.01398721806769
 51
90.0
  0
ARC
  5
40D
330
1F
100
AcDbEntity
  8
0
  6
CONTINUOUS
 62
     7
100
AcDbCircle
 10
6.30638709031155
 20
80.4499813456058
 30
0.0
 40
0.5
100
AcDbArc
 50
90.0
 51
175.9860127819323
  0
ARC
  5
40E
330
1F
100
AcDbEntity
  8
0
  6
CONTINUOUS
 62
     7
100
AcDbCircle
 10
-10.84361290968832
 20
80.4499813456058
 30
0.0
 40
0.5
100
AcDbArc
 50
90.0
 51
175.9860127819414
  0
ARC
  5
40F
330
1F
100
AcDbEntity
  8
0
  6
CONTINUOUS
 62
     7
100
AcDbCircle
 10
-7.74361290968841
 20
80.4499813456058
 30
0.0
 40
0.4999999999999815
100
AcDbArc
 50
4.01398721806586
 51
90.0
  0
ARC
  5
410
330
1F
100
AcDbEntity
  8
0
  6
CONTINUOUS
 62
     7
100
AcDbCircle
 10
57.10638758151572
 20
80.44998134560592
 30
0.0
 40
0.5
100
AcDbArc
 50
90.0
 51
180.0
  0
ARC
  5
411
330
1F
100
AcDbEntity
  8
0
  6
CONTINUOUS
 62
     7
100
AcDbCircle
 10
67.10638758151572
 20
80.44998134560592
 30
0.0
 40
0.5
100
AcDbArc
 50
0.0
 51
90.0
  0
ARC
  5
412
330
1F
100
AcDbEntity
  8
0
  6
CONTINUOUS
 62
     7
100
AcDbCircle
 10
53.35638758151572
 20
77.13498134560461
 30
0.0
 40
0.3500000000000383
100
AcDbArc
 50
315.5846914028006
 51
0.0
  0
ARC
  5
413
330
1F
100
AcDbEntity
  8
0
  6
CONTINUOUS
 62
     7
100
AcDbCircle
 10
70.85638758151572
 20
77.13498134560461
 30
0.0
 40
0.3500000000001364
100
AcDbArc
 50
180.0
 51
224.4153085971994
  0
ARC
  5
414
330
1F
100
AcDbEntity
  8
0
  6
CONTINUOUS
 62
     7
100
AcDbCircle
 10
56.65638758151567
 20
72.08498134580395
 30
0.0
 40
0.2000000000000455
100
AcDbArc
 50
180.0
 51
270.0
  0
ARC
  5
415
330
1F
100
AcDbEntity
  8
0
  6
CONTINUOUS
 62
     7
100
AcDbCircle
 10
67.55638758151554
 20
72.08498134580395
 30
0.0
 40
0.2000000000000455
100
AcDbArc
 50
270.0
 51
0.0
  0
ARC
  5
416
330
1F
100
AcDbEntity
  8
0
  6
CONTINUOUS
 62
     7
100
AcDbCircle
 10
15.50638755243153
 20
75.29835269976752
 30
0.0
 40
2.000000000000636
100
AcDbArc
 50
336.6444351450668
 51
0.0
  0
ARC
  5
417
330
1F
100
AcDbEntity
  8
0
  6
CONTINUOUS
 62
     7
100
AcDbCircle
 10
11.24638755282763
 20
124.4718078096819
 30
0.0
 40
0.6499999999999915
100
AcDbArc
 50
90.0
 51
122.2042275039152
  0
ARC
  5
418
330
1F
100
AcDbEntity
  8
0
  6
CONTINUOUS
 62
     7
100
AcDbCircle
 10
-14.20361241848445
 20
122.521807809682
 30
0.0
 40
2.599999999999733
100
AcDbArc
 50
74.05763139437599
 51
90.0
  0
ARC
  5
419
330
1F
100
AcDbEntity
  8
0
  6
CONTINUOUS
 62
     7
100
AcDbCircle
 10
14.19638758151564
 20
140.3218078096818
 30
0.0
 40
0.7999999999999492
100
AcDbArc
 50
0.0
 51
90.0
  0
ARC
  5
41A
330
1F
100
AcDbEntity
  8
0
  6
CONTINUOUS
 62
     7
100
AcDbCircle
 10
16.29638755243173
 20
139.4718078096818
 30
0.0
 40
1.199999999999807
100
AcDbArc
 50
0.0
 51
90.0
  0
ARC
  5
41B
330
1F
100
AcDbEntity
  8
0
  6
CONTINUOUS
 62
     7
100
AcDbCircle
 10
14.19638758151564
 20
126.721807809682
 30
0.0
 40
0.8000000000002103
100
AcDbArc
 50
270.0
 51
0.0
  0
ARC
  5
41C
330
1F
100
AcDbEntity
  8
0
  6
CONTINUOUS
 62
     7
100
AcDbCircle
 10
16.29638755243173
 20
127.5718078096818
 30
0.0
 40
1.199999999999903
100
AcDbArc
 50
270.0
 51
0.0
  0
ARC
  5
41D
330
1F
100
AcDbEntity
  8
0
  6
CONTINUOUS
 62
     7
100
AcDbCircle
 10
-12.70361266513646
 20
126.7218078096818
 30
0.0
 40
0.7999999999999599
100
AcDbArc
 50
180.0
 51
270.0
  0
ARC
  5
41E
330
1F
100
AcDbEntity
  8
0
  6
CONTINUOUS
 62
     7
100
AcDbCircle
 10
-14.20361241848445
 20
144.521807809682
 30
0.0
 40
2.600000000000193
100
AcDbArc
 50
270.0
 51
285.9423686056216
  0
ARC
  5
41F
330
1F
100
AcDbEntity
  8
0
  6
CONTINUOUS
 62
     7
100
AcDbCircle
 10
-12.70361266513646
 20
140.3218078096818
 30
0.0
 40
0.8000000000001251
100
AcDbArc
 50
90.0
 51
180.0
  0
ARC
  5
420
330
1F
100
AcDbEntity
  8
0
  6
CONTINUOUS
 62
     7
100
AcDbCircle
 10
11.24638755282763
 20
142.5718078096819
 30
0.0
 40
0.6499999999996414
100
AcDbArc
 50
237.7957724960941
 51
270.0
  0
ARC
  5
421
330
1F
100
AcDbEntity
  8
0
  6
CONTINUOUS
 62
     7
100
AcDbCircle
 10
-8.55361290968835
 20
129.3218078096818
 30
0.0
 40
1.59999999999998
100
AcDbArc
 50
270.0
 51
314.0486256740739
  0
ARC
  5
422
330
1F
100
AcDbEntity
  8
0
  6
CONTINUOUS
 62
     7
100
AcDbCircle
 10
-8.55361290968835
 20
129.3218078096818
 30
0.0
 40
1.300000000000097
100
AcDbArc
 50
270.0
 51
0.0
  0
ARC
  5
423
330
1F
100
AcDbEntity
  8
0
  6
CONTINUOUS
 62
     7
100
AcDbCircle
 10
-10.05361290968835
 20
129.3218078096818
 30
0.0
 40
1.29999999999996
100
AcDbArc
 50
180.0
 51
270.0
  0
ARC
  5
424
330
1F
100
AcDbEntity
  8
0
  6
CONTINUOUS
 62
     7
100
AcDbCircle
 10
-10.10361315634032
 20
129.3218078096818
 30
0.0
 40
1.600000000000131
100
AcDbArc
 50
180.0
 51
270.0
  0
ARC
  5
425
330
1F
100
AcDbEntity
  8
0
  6
CONTINUOUS
 62
     7
100
AcDbCircle
 10
-12.60361315634032
 20
126.8218078096818
 30
0.0
 40
0.799999999999951
100
AcDbArc
 50
180.0
 51
270.0
  0
ARC
  5
426
330
1F
100
AcDbEntity
  8
0
  6
CONTINUOUS
 62
     7
100
AcDbCircle
 10
-8.55361290968835
 20
137.7218078096818
 30
0.0
 40
1.299999999999955
100
AcDbArc
 50
0.0
 51
90.0
  0
ARC
  5
427
330
1F
100
AcDbEntity
  8
0
  6
CONTINUOUS
 62
     7
100
AcDbCircle
 10
-10.05361290968835
 20
137.7218078096818
 30
0.0
 40
1.300000000000011
100
AcDbArc
 50
90.0
 51
180.0
  0
ARC
  5
428
330
1F
100
AcDbEntity
  8
0
  6
CONTINUOUS
 62
     7
100
AcDbCircle
 10
-8.55361290968835
 20
129.3218078096818
 30
0.0
 40
1.599999999999687
100
AcDbArc
 50
314.0486256740739
 51
0.0
  0
ARC
  5
429
330
1F
100
AcDbEntity
  8
0
  6
CONTINUOUS
 62
     7
100
AcDbCircle
 10
-8.55361290968835
 20
137.7218078096818
 30
0.0
 40
1.599999999999909
100
AcDbArc
 50
0.0
 51
45.95137432592963
  0
ARC
  5
42A
330
1F
100
AcDbEntity
  8
0
  6
CONTINUOUS
 62
     7
100
AcDbCircle
 10
-10.10361315634032
 20
137.7218078096818
 30
0.0
 40
1.599999999999994
100
AcDbArc
 50
90.0
 51
180.0
  0
ARC
  5
42B
330
1F
100
AcDbEntity
  8
0
  6
CONTINUOUS
 62
     7
100
AcDbCircle
 10
-12.60361315634032
 20
140.2218078096818
 30
0.0
 40
0.8000000000000114
100
AcDbArc
 50
90.0
 51
180.0
  0
ARC
  5
42C
330
1F
100
AcDbEntity
  8
0
  6
CONTINUOUS
 62
     7
100
AcDbCircle
 10
-8.55361290968835
 20
137.7218078096818
 30
0.0
 40
1.599999999999789
100
AcDbArc
 50
45.95137432592963
 51
90.0
  0
ARC
  5
42D
330
1F
100
AcDbEntity
  8
0
  6
CONTINUOUS
 62
     7
100
AcDbCircle
 10
8.64638709031055
 20
129.3218078096818
 30
0.0
 40
1.59999999999998
100
AcDbArc
 50
270.0
 51
0.0
  0
ARC
  5
42E
330
1F
100
AcDbEntity
  8
0
  6
CONTINUOUS
 62
     7
100
AcDbCircle
 10
7.09638709031174
 20
129.3218078096818
 30
0.0
 40
1.300000000000182
100
AcDbArc
 50
180.0
 51
270.0
  0
ARC
  5
42F
330
1F
100
AcDbEntity
  8
0
  6
CONTINUOUS
 62
     7
100
AcDbCircle
 10
8.59638709031174
 20
129.3218078096818
 30
0.0
 40
1.300000000000097
100
AcDbArc
 50
270.0
 51
0.0
  0
ARC
  5
430
330
1F
100
AcDbEntity
  8
0
  6
CONTINUOUS
 62
     7
100
AcDbCircle
 10
14.0963870903106
 20
126.8218078096818
 30
0.0
 40
0.7999999999999972
100
AcDbArc
 50
270.0
 51
0.0
  0
ARC
  5
431
330
1F
100
AcDbEntity
  8
0
  6
CONTINUOUS
 62
     7
100
AcDbCircle
 10
7.09638709031174
 20
129.3218078096818
 30
0.0
 40
1.599999999999845
100
AcDbArc
 50
225.9513743259202
 51
270.0
  0
ARC
  5
432
330
1F
100
AcDbEntity
  8
0
  6
CONTINUOUS
 62
     7
100
AcDbCircle
 10
7.09638709031174
 20
129.3218078096818
 30
0.0
 40
1.600000000000136
100
AcDbArc
 50
180.0
 51
225.9513743259202
  0
ARC
  5
433
330
1F
100
AcDbEntity
  8
0
  6
CONTINUOUS
 62
     7
100
AcDbCircle
 10
7.09638709031174
 20
137.7218078096818
 30
0.0
 40
1.599999999999994
100
AcDbArc
 50
90.0
 51
134.0486256740762
  0
ARC
  5
434
330
1F
100
AcDbEntity
  8
0
  6
CONTINUOUS
 62
     7
100
AcDbCircle
 10
14.0963870903106
 20
140.2218078096818
 30
0.0
 40
0.799999999999951
100
AcDbArc
 50
0.0
 51
90.0
  0
ARC
  5
435
330
1F
100
AcDbEntity
  8
0
  6
CONTINUOUS
 62
     7
100
AcDbCircle
 10
7.09638709031174
 20
137.7218078096818
 30
0.0
 40
1.300000000000011
100
AcDbArc
 50
90.0
 51
180.0
  0
ARC
  5
436
330
1F
100
AcDbEntity
  8
0
  6
CONTINUOUS
 62
     7
100
AcDbCircle
 10
8.59638709031174
 20
137.7218078096818
 30
0.0
 40
1.299999999999955
100
AcDbArc
 50
0.0
 51
90.0
  0
ARC
  5
437
330
1F
100
AcDbEntity
  8
0
  6
CONTINUOUS
 62
     7
100
AcDbCircle
 10
7.09638709031174
 20
137.7218078096818
 30
0.0
 40
1.599999999999947
100
AcDbArc
 50
134.0486256740762
 51
180.0
  0
ARC
  5
438
330
1F
100
AcDbEntity
  8
0
  6
CONTINUOUS
 62
     7
100
AcDbCircle
 10
8.64638709031055
 20
137.7218078096818
 30
0.0
 40
1.600000000001046
100
AcDbArc
 50
0.0
 51
90.0
  0
ARC
  5
439
330
1F
100
AcDbEntity
  8
0
  6
CONTINUOUS
 62
     7
100
AcDbCircle
 10
-53.89361241848428
 20
75.83498134560568
 30
0.0
 40
1.049999999999955
100
AcDbArc
 50
0.0
 51
90.0
  0
ARC
  5
43A
330
1F
100
AcDbEntity
  8
0
  6
CONTINUOUS
 62
     7
100
AcDbCircle
 10
-53.89361241848428
 20
42.23498134560589
 30
0.0
 40
1.049999999999962
100
AcDbArc
 50
270.0
 51
0.0
  0
ARC
  5
43B
330
1F
100
AcDbEntity
  8
0
  6
CONTINUOUS
 62
     7
100
AcDbCircle
 10
-66.89361241848428
 20
42.23498134560589
 30
0.0
 40
1.050000000000182
100
AcDbArc
 50
180.0
 51
270.0
  0
ARC
  5
43C
330
1F
100
AcDbEntity
  8
0
  6
CONTINUOUS
 62
     7
100
AcDbCircle
 10
-66.89361241848428
 20
75.83498134560568
 30
0.0
 40
1.050000000000068
100
AcDbArc
 50
90.0
 51
180.0
  0
ARC
  5
43D
330
1F
100
AcDbEntity
  8
0
  6
CONTINUOUS
 62
     7
100
AcDbCircle
 10
-53.89361241848428
 20
75.83498134560568
 30
0.0
 40
1.0
100
AcDbArc
 50
0.0
 51
90.0
  0
ARC
  5
43E
330
1F
100
AcDbEntity
  8
0
  6
CONTINUOUS
 62
     7
100
AcDbCircle
 10
-53.89361241848428
 20
42.23498134560589
 30
0.0
 40
1.0
100
AcDbArc
 50
270.0
 51
0.0
  0
ARC
  5
43F
330
1F
100
AcDbEntity
  8
0
  6
CONTINUOUS
 62
     7
100
AcDbCircle
 10
-55.64361241848428
 20
69.08498134560568
 30
0.0
 40
1.0
100
AcDbArc
 50
0.0
 51
90.0
  0
ARC
  5
440
330
1F
100
AcDbEntity
  8
0
  6
CONTINUOUS
 62
     7
100
AcDbCircle
 10
-55.64361241848428
 20
52.98498119550288
 30
0.0
 40
1.0
100
AcDbArc
 50
270.0
 51
0.0
  0
ARC
  5
441
330
1F
100
AcDbEntity
  8
0
  6
CONTINUOUS
 62
     7
100
AcDbCircle
 10
-65.14361241848428
 20
69.08498134560568
 30
0.0
 40
1.0
100
AcDbArc
 50
90.0
 51
180.0
  0
ARC
  5
442
330
1F
100
AcDbEntity
  8
0
  6
CONTINUOUS
 62
     7
100
AcDbCircle
 10
-65.14361241848428
 20
52.98498119550288
 30
0.0
 40
1.0
100
AcDbArc
 50
180.0
 51
270.0
  0
ARC
  5
443
330
1F
100
AcDbEntity
  8
0
  6
CONTINUOUS
 62
     7
100
AcDbCircle
 10
-66.89361241848428
 20
75.83498134560568
 30
0.0
 40
1.0
100
AcDbArc
 50
90.0
 51
180.0
  0
ARC
  5
444
330
1F
100
AcDbEntity
  8
0
  6
CONTINUOUS
 62
     7
100
AcDbCircle
 10
-66.89361241848428
 20
42.23498134560589
 30
0.0
 40
1.0
100
AcDbArc
 50
180.0
 51
270.0
  0
ARC
  5
445
330
1F
100
AcDbEntity
  8
0
  6
CONTINUOUS
 62
     7
100
AcDbCircle
 10
-60.39361241848428
 20
52.08498119550279
 30
0.0
 40
2.450000000000209
100
AcDbArc
 50
357.6607469258302
 51
0.0
  0
ARC
  5
446
330
1F
100
AcDbEntity
  8
0
  6
CONTINUOUS
 62
     7
100
AcDbCircle
 10
-60.39361241848428
 20
52.08498119550279
 30
0.0
 40
2.449999999999818
100
AcDbArc
 50
0.0
 51
66.68855431849877
  0
ARC
  5
447
330
1F
100
AcDbEntity
  8
0
  6
CONTINUOUS
 62
     7
100
AcDbCircle
 10
-60.39361241848428
 20
52.08498119550279
 30
0.0
 40
2.449999999999925
100
AcDbArc
 50
113.3114456815061
 51
182.3392530741696
  0
ARC
  5
448
330
1F
100
AcDbEntity
  8
0
  6
CONTINUOUS
 62
     7
100
AcDbCircle
 10
-60.39361241848428
 20
52.08498119550279
 30
0.0
 40
2.450000000000436
100
AcDbArc
 50
182.3392530741696
 51
357.6607469258302
  0
ARC
  5
449
330
1F
100
AcDbEntity
  8
0
  6
CONTINUOUS
 62
     7
100
AcDbCircle
 10
16.38289573864267
 20
81.484751165479
 30
0.0
 40
0.1999999999997118
100
AcDbArc
 50
26.56505115444314
 51
91.12172453099689
  0
ARC
  5
44A
330
1F
100
AcDbEntity
  8
0
  6
CONTINUOUS
 62
     7
100
AcDbCircle
 10
15.50638755226464
 20
79.2128451772378
 30
0.0
 40
2.000000000020011
100
AcDbArc
 50
359.9999999797193
 51
26.56505115679727
  0
ARC
  5
44B
330
1F
100
AcDbEntity
  8
0
  6
CONTINUOUS
 62
     7
100
AcDbCircle
 10
16.40638758151567
 20
80.28498113196486
 30
0.0
 40
1.400000000000054
100
AcDbArc
 50
91.12172453089629
 51
171.7867804642728
  0
ARC
  5
44C
330
1F
100
AcDbEntity
  8
0
  6
CONTINUOUS
 62
     7
100
AcDbCircle
 10
2.9063880191427
 20
38.38498134560598
 30
0.0
 40
1.400000000000091
100
AcDbArc
 50
180.0
 51
270.0
  0
ARC
  5
44D
330
1F
100
AcDbEntity
  8
0
  6
CONTINUOUS
 62
     7
100
AcDbCircle
 10
6.0062837979076
 20
38.43498134560582
 30
0.0
 40
1.449999999999932
100
AcDbArc
 50
270.0
 51
315.0000000000159
  0
ARC
  5
44E
330
1F
100
AcDbEntity
  8
0
  6
CONTINUOUS
 62
     7
100
AcDbCircle
 10
13.25638758151558
 20
77.63498134560507
 30
0.0
 40
1.450000000000049
100
AcDbArc
 50
0.0
 51
90.0
  0
ARC
  5
44F
330
1F
100
AcDbEntity
  8
0
  6
CONTINUOUS
 62
     7
100
AcDbCircle
 10
-1.39361198085726
 20
38.68498134560582
 30
0.0
 40
2.899999999999864
100
AcDbArc
 50
0.0
 51
90.0
  0
ARC
  5
450
330
1F
100
AcDbEntity
  8
0
  6
CONTINUOUS
 62
     7
100
AcDbCircle
 10
-14.39361241848428
 20
42.98498134560566
 30
0.0
 40
1.400000000000091
100
AcDbArc
 50
180.0
 51
270.0
  0
ARC
  5
451
330
1F
100
AcDbEntity
  8
0
  6
CONTINUOUS
 62
     7
100
AcDbCircle
 10
-14.38895873746742
 20
77.88498134560575
 30
0.0
 40
2.899999999999864
100
AcDbArc
 50
270.0
 51
357.3341182351421
  0
ARC
  5
452
330
1F
100
AcDbEntity
  8
0
  6
CONTINUOUS
 62
     7
100
AcDbCircle
 10
-10.09361241848433
 20
77.68498134560502
 30
0.0
 40
1.400000000000091
100
AcDbArc
 50
90.0
 51
177.334118235141
  0
ARC
  5
453
330
1F
100
AcDbEntity
  8
0
  6
CONTINUOUS
 62
     7
100
AcDbCircle
 10
-14.39361241848428
 20
73.5849813456058
 30
0.0
 40
1.400000000000091
100
AcDbArc
 50
90.0
 51
180.0
  0
ARC
  5
454
330
1F
100
AcDbEntity
  8
0
  6
CONTINUOUS
 62
     7
100
AcDbCircle
 10
13.25638758151558
 20
45.68508512921324
 30
0.0
 40
1.449999999999704
100
AcDbArc
 50
314.9999999999935
 51
0.0
  0
ARC
  5
455
330
1F
100
AcDbEntity
  8
0
  6
CONTINUOUS
 62
     7
100
AcDbCircle
 10
2.9063880191427
 20
38.38498134560598
 30
0.0
 40
1.400000000000091
100
AcDbArc
 50
180.0
 51
270.0
  0
ARC
  5
456
330
1F
100
AcDbEntity
  8
0
  6
CONTINUOUS
 62
     7
100
AcDbCircle
 10
6.0062837979076
 20
38.43498134560582
 30
0.0
 40
1.449999999999932
100
AcDbArc
 50
270.0
 51
315.0000000000159
  0
ARC
  5
457
330
1F
100
AcDbEntity
  8
0
  6
CONTINUOUS
 62
     7
100
AcDbCircle
 10
13.25638758151558
 20
77.63498134560507
 30
0.0
 40
1.450000000000049
100
AcDbArc
 50
0.0
 51
90.0
  0
ARC
  5
458
330
1F
100
AcDbEntity
  8
0
  6
CONTINUOUS
 62
     7
100
AcDbCircle
 10
-1.39361198085726
 20
38.68498134560582
 30
0.0
 40
2.899999999999864
100
AcDbArc
 50
0.0
 51
90.0
  0
ARC
  5
459
330
1F
100
AcDbEntity
  8
0
  6
CONTINUOUS
 62
     7
100
AcDbCircle
 10
-14.39361241848428
 20
42.98498134560566
 30
0.0
 40
1.400000000000091
100
AcDbArc
 50
180.0
 51
270.0
  0
ARC
  5
45A
330
1F
100
AcDbEntity
  8
0
  6
CONTINUOUS
 62
     7
100
AcDbCircle
 10
-11.49361241848442
 20
47.38498134560507
 30
0.0
 40
0.2000000000000401
100
AcDbArc
 50
180.0
 51
270.0
  0
ARC
  5
45B
330
1F
100
AcDbEntity
  8
0
  6
CONTINUOUS
 62
     7
100
AcDbCircle
 10
-11.49361241848442
 20
72.38498134560507
 30
0.0
 40
0.2000000000000455
100
AcDbArc
 50
90.0
 51
180.0
  0
ARC
  5
45C
330
1F
100
AcDbEntity
  8
0
  6
CONTINUOUS
 62
     7
100
AcDbCircle
 10
8.50638758151558
 20
72.38498134560507
 30
0.0
 40
0.2000000000000455
100
AcDbArc
 50
0.0
 51
90.0
  0
ARC
  5
45D
330
1F
100
AcDbEntity
  8
0
  6
CONTINUOUS
 62
     7
100
AcDbCircle
 10
-14.38895873746742
 20
77.88498134560575
 30
0.0
 40
2.899999999999864
100
AcDbArc
 50
270.0
 51
357.3341182351421
  0
ARC
  5
45E
330
1F
100
AcDbEntity
  8
0
  6
CONTINUOUS
 62
     7
100
AcDbCircle
 10
8.50638758151558
 20
47.38498134560507
 30
0.0
 40
0.2000000000000526
100
AcDbArc
 50
270.0
 51
0.0
  0
ARC
  5
45F
330
1F
100
AcDbEntity
  8
0
  6
CONTINUOUS
 62
     7
100
AcDbCircle
 10
-10.09361241848433
 20
77.68498134560502
 30
0.0
 40
1.400000000000091
100
AcDbArc
 50
90.0
 51
177.334118235141
  0
ARC
  5
460
330
1F
100
AcDbEntity
  8
0
  6
CONTINUOUS
 62
     7
100
AcDbCircle
 10
-14.39361241848428
 20
73.5849813456058
 30
0.0
 40
1.400000000000091
100
AcDbArc
 50
90.0
 51
180.0
  0
ARC
  5
461
330
1F
100
AcDbEntity
  8
0
  6
CONTINUOUS
 62
     7
100
AcDbCircle
 10
13.25638758151558
 20
45.68508512921324
 30
0.0
 40
1.449999999999704
100
AcDbArc
 50
314.9999999999935
 51
0.0
  0
ARC
  5
462
330
1F
100
AcDbEntity
  8
0
  6
CONTINUOUS
 62
     7
100
AcDbCircle
 10
-14.59361241848433
 20
77.88498134560575
 30
0.0
 40
2.600000000000136
100
AcDbArc
 50
90.0
 51
180.0
  0
ARC
  5
463
330
1F
100
AcDbEntity
  8
0
  6
CONTINUOUS
 62
     7
100
AcDbCircle
 10
-14.39361241847928
 20
77.8849813458246
 30
0.0
 40
2.799999999994338
100
AcDbArc
 50
357.3341182305777
 51
359.9999999955218
  0
ARC
  5
464
330
1F
100
AcDbEntity
  8
0
  6
CONTINUOUS
 62
     7
100
AcDbCircle
 10
-10.09826609950733
 20
77.68498134559991
 30
0.0
 40
1.500000000004434
100
AcDbArc
 50
89.99999999977426
 51
177.3341182350958
  0
ARC
  5
465
330
1F
100
AcDbEntity
  8
0
  6
CONTINUOUS
 62
     7
100
AcDbCircle
 10
15.25638756717171
 20
53.13498134560575
 30
0.0
 40
0.3499999856560407
100
AcDbArc
 50
180.0
 51
0.0
  0
ARC
  5
466
330
1F
100
AcDbEntity
  8
0
  6
CONTINUOUS
 62
     7
100
AcDbCircle
 10
15.25638756717171
 20
57.43498134560571
 30
0.0
 40
0.3499999999999091
100
AcDbArc
 50
0.00000000001745
 51
90.0
  0
ARC
  5
467
330
1F
100
AcDbEntity
  8
0
  6
CONTINUOUS
 62
     7
100
AcDbCircle
 10
15.10638756717162
 20
44.91879000419442
 30
0.0
 40
0.499999985656001
100
AcDbArc
 50
315.0000039681985
 51
0.0000039682185
  0
ARC
  5
468
330
1F
100
AcDbEntity
  8
0
  6
CONTINUOUS
 62
     7
100
AcDbCircle
 10
13.40638758151567
 20
45.76437445109514
 30
0.0
 40
1.500000000000334
100
AcDbArc
 50
314.999999999997
 51
0.0
  0
ARC
  5
469
330
1F
100
AcDbEntity
  8
0
  6
CONTINUOUS
 62
     7
100
AcDbCircle
 10
13.40638758151567
 20
77.68498134560434
 30
0.0
 40
1.5
100
AcDbArc
 50
0.0
 51
90.0
  0
ARC
  5
46A
330
1F
100
AcDbEntity
  8
0
  6
CONTINUOUS
 62
     7
100
AcDbCircle
 10
-14.49361241848442
 20
73.5849813456058
 30
0.0
 40
1.499999999988631
100
AcDbArc
 50
90.0
 51
180.0
  0
ARC
  5
46B
330
1F
100
AcDbEntity
  8
0
  6
CONTINUOUS
 62
     7
100
AcDbCircle
 10
-14.59361241848433
 20
77.68498134560582
 30
0.0
 40
2.600000000000129
100
AcDbArc
 50
180.0
 51
270.0
  0
ARC
  5
46C
330
1F
100
AcDbEntity
  8
0
  6
CONTINUOUS
 62
     7
100
AcDbCircle
 10
16.26477913061353
 20
81.17377078460106
 30
0.0
 40
0.4000000000000845
100
AcDbArc
 50
26.56505117706297
 51
99.05269188263064
  0
ARC
  5
46D
330
1F
100
AcDbEntity
  8
0
  6
CONTINUOUS
 62
     7
100
AcDbCircle
 10
16.40638758151567
 20
80.28498113196486
 30
0.0
 40
1.299999999999922
100
AcDbArc
 50
99.05269188272464
 51
171.1501073721778
  0
ARC
  5
46E
330
1F
100
AcDbEntity
  8
0
  6
CONTINUOUS
 62
     7
100
AcDbCircle
 10
15.10638755282776
 20
79.98498134560589
 30
0.0
 40
0.5
100
AcDbArc
 50
0.0
 51
35.6569657579965
  0
ARC
  5
46F
330
1F
100
AcDbEntity
  8
0
  6
CONTINUOUS
 62
     7
100
AcDbCircle
 10
15.10638755282776
 20
79.98498134560589
 30
0.0
 40
0.4999999999998619
100
AcDbArc
 50
35.6569657579965
 51
90.0
  0
ARC
  5
470
330
1F
100
AcDbEntity
  8
0
  6
CONTINUOUS
 62
     7
100
AcDbCircle
 10
15.25638756717171
 20
77.13498134560439
 30
0.0
 40
0.3499999856560407
100
AcDbArc
 50
180.0
 51
0.0
  0
ARC
  5
471
330
1F
100
AcDbEntity
  8
0
  6
CONTINUOUS
 62
     7
100
AcDbCircle
 10
15.50638755243153
 20
79.11284517696538
 30
0.0
 40
2.0
100
AcDbArc
 50
0.0
 51
26.56505117706916
  0
ARC
  5
472
330
1F
100
AcDbEntity
  8
0
  6
CONTINUOUS
 62
     7
100
AcDbCircle
 10
-1.29361198085735
 20
38.68498134560582
 30
0.0
 40
2.599999999999909
100
AcDbArc
 50
270.0
 51
0.0
  0
ARC
  5
473
330
1F
100
AcDbEntity
  8
0
  6
CONTINUOUS
 62
     7
100
AcDbCircle
 10
-1.39361198085726
 20
38.68498134560582
 30
0.0
 40
1.550000000000068
100
AcDbArc
 50
270.0
 51
90.0
  0
ARC
  5
474
330
1F
100
AcDbEntity
  8
0
  6
CONTINUOUS
 62
     7
100
AcDbCircle
 10
6.77257888829763
 20
36.58498134560591
 30
0.0
 40
0.5
100
AcDbArc
 50
270.0
 51
315.0000000000645
  0
ARC
  5
475
330
1F
100
AcDbEntity
  8
0
  6
CONTINUOUS
 62
     7
100
AcDbCircle
 10
2.80638801914256
 20
38.38498134560598
 30
0.0
 40
1.5
100
AcDbArc
 50
180.0
 51
270.0
  0
ARC
  5
476
330
1F
100
AcDbEntity
  8
0
  6
CONTINUOUS
 62
     7
100
AcDbCircle
 10
6.02699447602663
 20
38.38498134560598
 30
0.0
 40
1.5
100
AcDbArc
 50
270.0
 51
315.0
  0
ARC
  5
477
330
1F
100
AcDbEntity
  8
0
  6
CONTINUOUS
 62
     7
100
AcDbCircle
 10
-1.39361198085726
 20
38.68498134560582
 30
0.0
 40
2.699999999999819
100
AcDbArc
 50
0.0
 51
90.0
  0
ARC
  5
478
330
1F
100
AcDbEntity
  8
0
  6
CONTINUOUS
 62
     7
100
AcDbCircle
 10
-8.39361241848428
 20
38.68498134560582
 30
0.0
 40
1.550000000000068
100
AcDbArc
 50
90.0
 51
270.0
  0
ARC
  5
479
330
1F
100
AcDbEntity
  8
0
  6
CONTINUOUS
 62
     7
100
AcDbCircle
 10
-14.49361241848442
 20
38.68498134560582
 30
0.0
 40
2.699999999999932
100
AcDbArc
 50
90.0
 51
179.9999999999469
  0
ARC
  5
47A
330
1F
100
AcDbEntity
  8
0
  6
CONTINUOUS
 62
     7
100
AcDbCircle
 10
-14.49361241848442
 20
42.88498134560575
 30
0.0
 40
1.5
100
AcDbArc
 50
180.0
 51
270.0
  0
ARC
  5
47B
330
1F
100
AcDbEntity
  8
0
  6
CONTINUOUS
 62
     7
100
AcDbCircle
 10
-14.19361241848446
 20
77.88498134560575
 30
0.0
 40
2.600000000000129
100
AcDbArc
 50
0.0
 51
90.0
  0
ARC
  5
47C
330
1F
100
AcDbEntity
  8
0
  6
CONTINUOUS
 62
     7
100
AcDbCircle
 10
-14.39361241849042
 20
77.88498134560075
 30
0.0
 40
2.799999999994952
100
AcDbArc
 50
270.0000000001257
 51
357.3341182351639
  0
ARC
  5
47D
330
1F
100
AcDbEntity
  8
0
  6
CONTINUOUS
 62
     7
100
AcDbCircle
 10
-14.59361241848433
 20
38.68498134560593
 30
0.0
 40
2.600000000000129
100
AcDbArc
 50
179.9999999999472
 51
270.0
  0
ARC
  5
47E
330
1F
100
AcDbEntity
  8
0
  6
CONTINUOUS
 62
     7
100
AcDbCircle
 10
11.25638755282762
 20
79.83498134560568
 30
0.0
 40
0.6500000000002046
100
AcDbArc
 50
90.0
 51
270.0
  0
ARC
  5
47F
330
1F
100
AcDbEntity
  8
0
  6
CONTINUOUS
 62
     7
100
AcDbCircle
 10
15.25638756717171
 20
57.43498134560571
 30
0.0
 40
0.3500000000000156
100
AcDbArc
 50
90.0
 51
180.0
  0
ARC
  5
480
330
1F
100
AcDbEntity
  8
0
  6
CONTINUOUS
 62
     7
100
AcDbCircle
 10
15.61638712058971
 20
43.58031322618353
 30
0.0
 40
0.3999999999999004
100
AcDbArc
 50
104.4775121859543
 51
135.0000000000453
  0
ARC
  5
481
330
1F
100
AcDbEntity
  8
0
  6
CONTINUOUS
 62
     7
100
AcDbCircle
 10
15.41638712058966
 20
41.96609966381038
 30
0.0
 40
0.1999999999998036
100
AcDbArc
 50
314.9999999999554
 51
0.0
  0
ARC
  5
482
330
1F
100
AcDbEntity
  8
0
  6
CONTINUOUS
 62
     7
100
AcDbCircle
 10
11.51516778970768
 20
38.77198711411495
 30
0.0
 40
0.1999999999998074
100
AcDbArc
 50
45.00000000004642
 51
134.9999999999539
  0
ARC
  5
483
330
1F
100
AcDbEntity
  8
0
  6
CONTINUOUS
 62
     7
100
AcDbCircle
 10
9.73526880238455
 20
36.28498134560607
 30
0.0
 40
0.2000000000000384
100
AcDbArc
 50
270.0
 51
315.0000000001842
  0
ARC
  5
484
330
1F
100
AcDbEntity
  8
0
  6
CONTINUOUS
 62
     7
100
AcDbCircle
 10
8.12105524001163
 20
36.08498134560603
 30
0.0
 40
0.399999999999527
100
AcDbArc
 50
134.9999999999208
 51
165.5224878140591
  0
ARC
  5
485
330
1F
100
AcDbEntity
  8
0
  6
CONTINUOUS
 62
     7
100
AcDbCircle
 10
15.11638758151571
 20
44.91879040342462
 30
0.0
 40
0.4999999999996838
100
AcDbArc
 50
314.9999999999725
 51
0.0
  0
ARC
  5
486
330
1F
100
AcDbEntity
  8
0
  6
CONTINUOUS
 62
     7
100
AcDbCircle
 10
6.78257888829762
 20
36.58498171020699
 30
0.0
 40
0.5
100
AcDbArc
 50
270.0
 51
315.0000000000558
  0
ARC
  5
487
330
1F
100
AcDbEntity
  8
0
  6
CONTINUOUS
 62
     7
100
AcDbCircle
 10
10.94948228802059
 20
37.92345905342847
 30
0.0
 40
0.3000000000001175
100
AcDbArc
 50
315.0000000000005
 51
44.99999999999952
  0
ARC
  5
488
330
1F
100
AcDbEntity
  8
0
  6
CONTINUOUS
 62
     7
100
AcDbCircle
 10
9.67669008188454
 20
36.65066684729288
 30
0.0
 40
0.3000000000000346
100
AcDbArc
 50
225.000000000046
 51
314.9999999999846
  0
CIRCLE
  5
489
330
1F
100
AcDbEntity
  8
0
  6
CONTINUOUS
 62
     7
100
AcDbCircle
 10
-14.39361241848428
 20
77.88498134560575
 30
0.0
 40
1.55000000000018
  0
CIRCLE
  5
48A
330
1F
100
AcDbEntity
  8
0
  6
CONTINUOUS
 62
     7
100
AcDbCircle
 10
-14.39361241848428
 20
38.68498134560582
 30
0.0
 40
1.549999999999949
  0
SPLINE
  5
48B
330
1F
100
AcDbEntity
  8
0
  6
CONTINUOUS
 62
     7
100
AcDbSpline
210
0.0
220
0.0
230
1.0
 70
     8
 71
     3
 72
    11
 73
     7
 74
     5
 42
0.0000000001
 43
0.0000000001
 44
0.00000001
 40
0.0
 40
0.0
 40
0.0
 40
0.0
 40
0.0750291401706539
 40
0.1500582803413187
 40
0.2250874205608176
 40
0.3001165607803165
 40
0.3001165607803165
 40
0.3001165607803165
 40
0.3001165607803165
 10
-66.34372897925937
 20
81.57938900378736
 30
0.0
 10
-66.31871926586919
 20
81.57938895731508
 30
0.0
 10
-66.26869983908884
 20
81.57938886437053
 30
0.0
 10
-66.19367069890217
 20
81.57938864916254
 30
0.0
 10
-66.11864155869884
 20
81.57938870569383
 30
0.0
 10
-66.06862213188586
 20
81.5793886980954
 30
0.0
 10
-66.04361241847937
 20
81.5793886942962
 30
0.0
 11
-66.34372897925937
 21
81.57938900378736
 31
0.0
 11
-66.26869983908887
 21
81.57938885173867
 31
0.0
 11
-66.19367069891837
 21
81.5793886944524
 31
0.0
 11
-66.11864155869887
 21
81.57938869437234
 31
0.0
 11
-66.04361241847937
 21
81.5793886942962
 31
0.0
  0
SPLINE
  5
48C
330
1F
100
AcDbEntity
  8
0
  6
CONTINUOUS
 62
     7
100
AcDbSpline
210
0.0
220
0.0
230
1.0
 70
     8
 71
     3
 72
    14
 73
    10
 74
     8
 42
0.0000000001
 43
0.0000000001
 44
0.00000001
 40
0.0
 40
0.0
 40
0.0
 40
0.0
 40
0.1962739951083028
 40
0.3796310660261621
 40
0.4516479383348501
 40
0.570106090995486
 40
0.748668420791308
 40
0.7778667153858049
 40
0.807096319831224
 40
0.807096319831224
 40
0.807096319831224
 40
0.807096319831224
 10
-67.13503388370236
 20
81.45904001768747
 30
0.0
 10
-67.0744130006295
 20
81.48424447635335
 30
0.0
 10
-66.95716073574494
 20
81.53299467123611
 30
0.0
 10
-66.80741153237385
 20
81.55652376514473
 30
0.0
 10
-66.68355087820163
 20
81.56948001137025
 30
0.0
 10
-66.56066624672978
 20
81.57658189865245
 30
0.0
 10
-66.45194403832478
 20
81.5789120486046
 30
0.0
 10
-66.37294817120943
 20
81.57936942687529
 30
0.0
 10
-66.3534721887846
 20
81.57938247581916
 30
0.0
 10
-66.34372897925937
 20
81.57938900378736
 30
0.0
 11
-67.13503388370236
 21
81.45904001768747
 31
0.0
 11
-66.9508673876116
 21
81.52690888296031
 31
0.0
 11
-66.77052629143736
 21
81.56002843136082
 31
0.0
 11
-66.69889292653951
 21
81.56745075785172
 31
0.0
 11
-66.58066630892493
 21
81.57485351539104
 31
0.0
 11
-66.40215637508027
 21
81.57917892183264
 31
0.0
 11
-66.37295854977123
 21
81.57934446472669
 31
0.0
 11
-66.34372897925937
 21
81.57938900378736
 31
0.0
  0
SPLINE
  5
48D
330
1F
100
AcDbEntity
  8
0
  6
CONTINUOUS
 62
     7
100
AcDbSpline
210
0.0
220
0.0
230
1.0
 70
     8
 71
     3
 72
    21
 73
    17
 74
    15
 42
0.0000000001
 43
0.0000000001
 44
0.00000001
 40
0.0
 40
0.0
 40
0.0
 40
0.0
 40
0.0260914594130125
 40
0.0797847973112881
 40
0.1526847726739416
 40
0.236419584833404
 40
0.2614060645528885
 40
0.3099866152239818
 40
0.3747830604619986
 40
0.4484797185685933
 40
0.4941178148919533
 40
0.5623678332035345
 40
0.644770433510947
 40
0.685818277359056
 40
0.7462544330128099
 40
0.8208838992564365
 40
0.8208838992564365
 40
0.8208838992564365
 40
0.8208838992564365
 10
-54.44350395876836
 20
81.5737712337916
 30
0.0
 10
-54.43480677854908
 20
81.57376987009978
 30
0.0
 10
-54.40821176329937
 20
81.57376570008098
 30
0.0
 10
-54.35731855187554
 20
81.57320658447432
 30
0.0
 10
-54.28722504497239
 20
81.57159104753367
 30
0.0
 10
-54.22673511541655
 20
81.56899144177171
 30
0.0
 10
-54.17438451673313
 20
81.56602828545849
 30
0.0
 10
-54.12838288837955
 20
81.56266198768606
 30
0.0
 10
-54.06630097943353
 20
81.55673165488511
 30
0.0
 10
-54.00540651170479
 20
81.54890893786444
 30
0.0
 10
-53.94370751784132
 20
81.53870506047708
 30
0.0
 10
-53.87961571406753
 20
81.5254128436676
 30
0.0
 10
-53.81787894166611
 20
81.5086672459012
 30
0.0
 10
-53.75976036669305
 20
81.48917653002924
 30
0.0
 10
-53.70497587215193
 20
81.46787527458821
 30
0.0
 10
-53.66481780945552
 20
81.44745903661857
 30
0.0
 10
-53.64262878206046
 20
81.43617820200666
 30
0.0
 11
-54.44350395876836
 21
81.5737712337916
 31
0.0
 11
-54.41741252268349
 21
81.57373634353385
 31
0.0
 11
-54.36372201158615
 21
81.57318538730652
 31
0.0
 11
-54.29084271261494
 21
81.57144924522115
 31
0.0
 11
-54.20718491290836
 21
81.56785879738914
 31
0.0
 11
-54.18223954001232
 21
81.5664261286034
 31
0.0
 11
-54.13378690361515
 21
81.56290307173896
 31
0.0
 11
-54.06928932125161
 21
81.55668686833639
 31
0.0
 11
-53.99620911045645
 21
81.5471747599363
 31
0.0
 11
-53.95118871743508
 21
81.53969144194079
 31
0.0
 11
-53.88437484356104
 21
81.52576408549834
 31
0.0
 11
-53.80489027327826
 21
81.504029513398
 31
0.0
 11
-53.76597087990644
 21
81.49098319958343
 31
0.0
 11
-53.70976295664435
 21
81.46877513184289
 31
0.0
 11
-53.64262878206046
 21
81.43617820200666
 31
0.0
  0
SPLINE
  5
48E
330
1F
100
AcDbEntity
  8
0
  6
CONTINUOUS
 62
     7
100
AcDbSpline
210
0.0
220
0.0
230
1.0
 70
     8
 71
     3
 72
    11
 73
     7
 74
     5
 42
0.0000000001
 43
0.0000000001
 44
0.00000001
 40
0.0
 40
0.0
 40
0.0
 40
0.0
 40
0.075027114955077
 40
0.1500542299099763
 40
0.2250813448162075
 40
0.3001084597217268
 40
0.3001084597217268
 40
0.3001084597217268
 40
0.3001084597217268
 10
-54.74361241848942
 20
81.57377078602019
 30
0.0
 10
-54.71860338017107
 20
81.57377079151624
 30
0.0
 10
-54.66858530353444
 20
81.57377080250835
 30
0.0
 10
-54.59355818859557
 20
81.57377072072225
 30
0.0
 10
-54.51853107367383
 20
81.57377103206625
 30
0.0
 10
-54.46851299707009
 20
81.5737711665498
 30
0.0
 10
-54.44350395876836
 20
81.5737712337916
 30
0.0
 11
-54.74361241848942
 21
81.57377078602019
 31
0.0
 11
-54.66858530353434
 21
81.57377078612929
 31
0.0
 11
-54.59355818857944
 21
81.57377078624393
 31
0.0
 11
-54.51853107367356
 21
81.57377101379646
 31
0.0
 11
-54.44350395876836
 21
81.5737712337916
 31
0.0
  0
SPLINE
  5
48F
330
1F
100
AcDbEntity
  8
0
  6
CONTINUOUS
 62
     7
100
AcDbSpline
210
0.0
220
0.0
230
1.0
 70
     8
 71
     3
 72
    19
 73
    15
 74
    13
 42
0.0000000001
 43
0.0000000001
 44
0.00000001
 40
0.0
 40
0.0
 40
0.0
 40
0.0
 40
0.0948588971289209
 40
0.1640382342067565
 40
0.2052084077656985
 40
0.2415709605954593
 40
0.3129601046854781
 40
0.4068249454617631
 40
0.4722056790447871
 40
0.5635769649758856
 40
0.6782223514131507
 40
0.7633521882053911
 40
0.8307886664322565
 40
0.8748711936289854
 40
0.8748711936289854
 40
0.8748711936289854
 40
0.8748711936289854
 10
-67.54361241848437
 20
80.73941220228153
 30
0.0
 10
-67.54292399282475
 20
80.77104166909217
 30
0.0
 10
-67.54173350745117
 20
80.82573808705143
 30
0.0
 10
-67.53368508429624
 20
80.89376414520926
 30
0.0
 10
-67.52495884650949
 20
80.94189227923944
 30
0.0
 10
-67.51430940628488
 20
80.99039201838958
 30
0.0
 10
-67.49527279757267
 20
81.05493357452691
 30
0.0
 10
-67.46625998441598
 20
81.12635239282416
 30
0.0
 10
-67.42618534134783
 20
81.19979026213622
 30
0.0
 10
-67.37374437625836
 20
81.27383156490612
 30
0.0
 10
-67.30636369037677
 20
81.3443171062788
 30
0.0
 10
-67.23630473997264
 20
81.39958993459389
 30
0.0
 10
-67.18104353474087
 20
81.43506648738726
 30
0.0
 10
-67.14806859910047
 20
81.45224822210767
 30
0.0
 10
-67.13503388370236
 20
81.45904001768747
 30
0.0
 11
-67.54361241848437
 21
80.73941220228153
 31
0.0
 11
-67.53979381208067
 21
80.83419420800861
 31
0.0
 11
-67.53170797199763
 21
80.90289937425308
 31
0.0
 11
-67.52440986692727
 21
80.94341752886623
 31
0.0
 11
-67.5165330395459
 21
80.97891669559873
 31
0.0
 11
-67.49642732978954
 21
81.04741611405683
 31
0.0
 11
-67.4607896842133
 21
81.13425254968001
 31
0.0
 11
-67.42943264900686
 21
81.19162307056763
 31
0.0
 11
-67.37669323475443
 21
81.26623718503006
 31
0.0
 11
-67.29750954944939
 21
81.34914381089834
 31
0.0
 11
-67.23077138074744
 21
81.40199365432842
 31
0.0
 11
-67.17388232384891
 21
81.43820572138954
 31
0.0
 11
-67.13503388370236
 21
81.45904001768747
 31
0.0
  0
SPLINE
  5
490
330
1F
100
AcDbEntity
  8
0
  6
CONTINUOUS
 62
     7
100
AcDbSpline
210
0.0
220
0.0
230
1.0
 70
     8
 71
     3
 72
    21
 73
    17
 74
    15
 42
0.0000000001
 43
0.0000000001
 44
0.00000001
 40
0.0
 40
0.0
 40
0.0
 40
0.0
 40
0.0463627188691937
 40
0.0717263398531963
 40
0.1363854855125708
 40
0.1770831959306737
 40
0.2109327368316094
 40
0.2655483540855426
 40
0.3370414196705186
 40
0.4222557782178644
 40
0.4757147146922996
 40
0.5480565939682169
 40
0.6387406365312274
 40
0.7296754849289019
 40
0.8118657870160123
 40
0.8830171459026518
 40
0.8830171459026518
 40
0.8830171459026518
 40
0.8830171459026518
 10
-53.64262878206046
 20
81.43617820200666
 30
0.0
 10
-53.62916430608092
 20
81.42858292819852
 30
0.0
 10
-53.60833382841246
 20
81.41683251312952
 30
0.0
 10
-53.5701075867315
 20
81.39220529842478
 30
0.0
 10
-53.53480672423855
 20
81.36655977810213
 30
0.0
 10
-53.4993173635339
 20
81.33663309631979
 30
0.0
 10
-53.46778046627391
 20
81.30730018979364
 30
0.0
 10
-53.43120221655987
 20
81.26842802973826
 30
0.0
 10
-53.38742681347814
 20
81.21310368557033
 30
0.0
 10
-53.35007142451965
 20
81.15362891510415
 30
0.0
 10
-53.31843369825253
 20
81.09074799115588
 30
0.0
 10
-53.29157636171013
 20
81.0236510421364
 30
0.0
 10
-53.2681719300778
 20
80.94212021966813
 30
0.0
 10
-53.25259675546619
 20
80.85545418902691
 30
0.0
 10
-53.24475698457431
 20
80.7743021452432
 30
0.0
 10
-53.24397518002009
 20
80.72318025558343
 30
0.0
 10
-53.24361241848442
 20
80.69945942267316
 30
0.0
 11
-53.64262878206046
 21
81.43617820200666
 31
0.0
 11
-53.60253908523728
 21
81.41289048186128
 31
0.0
 11
-53.58119449234437
 21
81.39918932776186
 31
0.0
 11
-53.52893549093008
 21
81.36111306365177
 31
0.0
 11
-53.49781092762032
 21
81.33489159931332
 31
0.0
 11
-53.47305141577186
 21
81.31181004840724
 31
0.0
 11
-53.43557076929913
 21
81.2720851596344
 31
0.0
 11
-53.39122833124078
 21
81.21600480109615
 31
0.0
 11
-53.34588344463532
 21
81.1438568408937
 31
0.0
 11
-53.32185253503038
 21
81.09610358684189
 31
0.0
 11
-53.29487605002009
 21
81.02897969576233
 31
0.0
 11
-53.26969461260046
 21
80.94186201222419
 31
0.0
 11
-53.25336751565712
 21
80.85240491324087
 31
0.0
 11
-53.24559194550233
 21
80.77058323967
 31
0.0
 11
-53.24361241848442
 21
80.69945942267316
 31
0.0
  0
SPLINE
  5
491
330
1F
100
AcDbEntity
  8
0
  6
CONTINUOUS
 62
     7
100
AcDbSpline
210
0.0
220
0.0
230
1.0
 70
     8
 71
     3
 72
    14
 73
    10
 74
     8
 42
0.0000000001
 43
0.0000000001
 44
0.00000001
 40
0.0
 40
0.0
 40
0.0
 40
0.0
 40
0.0292296043549524
 40
0.0584278988591483
 40
0.2369902283914252
 40
0.3554483811791834
 40
0.4274652539742007
 40
0.6108223249604471
 40
0.8070963198320309
 40
0.8070963198320309
 40
0.8070963198320309
 40
0.8070963198320309
 10
68.05650414229058
 20
81.57938900378747
 30
0.0
 10
68.06624735178563
 20
81.5793824758193
 30
0.0
 10
68.08572333415026
 20
81.57936942687556
 30
0.0
 10
68.16471920111744
 20
81.57891204860749
 30
0.0
 10
68.27344140944702
 20
81.57658189866305
 30
0.0
 10
68.39632604103595
 20
81.56948001138556
 30
0.0
 10
68.52018669543509
 20
81.55652376514843
 30
0.0
 10
68.66993589890791
 20
81.53299467119635
 30
0.0
 10
68.78718816373612
 20
81.48424447632716
 30
0.0
 10
68.84780904673357
 20
81.45904001768747
 30
0.0
 11
68.05650414229058
 21
81.57938900378747
 31
0.0
 11
68.08573371271197
 21
81.57934446472711
 31
0.0
 11
68.11493153793072
 21
81.57917892183423
 31
0.0
 11
68.29344147151218
 21
81.5748535154101
 31
0.0
 11
68.4116680892545
 21
81.56745075787668
 31
0.0
 11
68.4833014546366
 21
81.56002843134058
 31
0.0
 11
68.66364255087315
 21
81.52690888290078
 31
0.0
 11
68.84780904673357
 21
81.45904001768747
 31
0.0
  0
SPLINE
  5
492
330
1F
100
AcDbEntity
  8
0
  6
CONTINUOUS
 62
     7
100
AcDbSpline
210
0.0
220
0.0
230
1.0
 70
     8
 71
     3
 72
    11
 73
     7
 74
     5
 42
0.0000000001
 43
0.0000000001
 44
0.00000001
 40
0.0
 40
0.0
 40
0.0
 40
0.0
 40
0.0750291402189305
 40
0.150058280437861
 40
0.225087420608611
 40
0.3001165607791797
 40
0.3001165607791797
 40
0.3001165607791797
 40
0.3001165607791797
 10
67.75638758151172
 20
81.57938869429631
 30
0.0
 10
67.78139729491802
 20
81.57938869809556
 30
0.0
 10
67.83141672173062
 20
81.57938870569403
 30
0.0
 10
67.90644586193356
 20
81.57938864916254
 30
0.0
 10
67.9814750021201
 20
81.57938886437091
 30
0.0
 10
68.03149442890043
 20
81.57938895731527
 30
0.0
 10
68.05650414229058
 20
81.57938900378747
 30
0.0
 11
67.75638758151172
 21
81.57938869429631
 31
0.0
 11
67.83141672173065
 21
81.5793886943725
 31
0.0
 11
67.90644586194958
 21
81.57938869445252
 31
0.0
 11
67.98147500212016
 21
81.57938885173894
 31
0.0
 11
68.05650414229058
 21
81.57938900378747
 31
0.0
  0
SPLINE
  5
493
330
1F
100
AcDbEntity
  8
0
  6
CONTINUOUS
 62
     7
100
AcDbSpline
210
0.0
220
0.0
230
1.0
 70
     8
 71
     3
 72
    11
 73
     7
 74
     5
 42
0.0000000001
 43
0.0000000001
 44
0.00000001
 40
0.0
 40
0.0
 40
0.0
 40
0.0
 40
0.0750271149059457
 40
0.1500542298117435
 40
0.2250813447671899
 40
0.3001084597226363
 40
0.3001084597226363
 40
0.3001084597226363
 40
0.3001084597226363
 10
56.15627912179957
 20
81.57377123379172
 30
0.0
 10
56.18128816010147
 20
81.57377116654996
 30
0.0
 10
56.23130623670517
 20
81.57377103206639
 30
0.0
 10
56.3063333516271
 20
81.57377072072237
 30
0.0
 10
56.38136046656612
 20
81.57377080250845
 30
0.0
 10
56.43137854320307
 20
81.57377079151635
 30
0.0
 10
56.45638758152154
 20
81.5737707860203
 30
0.0
 11
56.15627912179957
 21
81.57377123379172
 31
0.0
 11
56.23130623670519
 21
81.57377101379662
 31
0.0
 11
56.30633335161065
 21
81.57377078624404
 31
0.0
 11
56.38136046656609
 21
81.5737707861294
 31
0.0
 11
56.45638758152154
 21
81.5737707860203
 31
0.0
  0
SPLINE
  5
494
330
1F
100
AcDbEntity
  8
0
  6
CONTINUOUS
 62
     7
100
AcDbSpline
210
0.0
220
0.0
230
1.0
 70
     8
 71
     3
 72
    21
 73
    17
 74
    15
 42
0.0000000001
 43
0.0000000001
 44
0.00000001
 40
0.0
 40
0.0
 40
0.0
 40
0.0
 40
0.0746294665660775
 40
0.1350656226171979
 40
0.1761134670032262
 40
0.2585160675968656
 40
0.326766085970876
 40
0.3724041818577425
 40
0.4461008401646558
 40
0.5108972855394316
 40
0.5594778362249526
 40
0.584464315777797
 40
0.6681991274117751
 40
0.7410991022755675
 40
0.7947924398479983
 40
0.8208838992552133
 40
0.8208838992552133
 40
0.8208838992552133
 40
0.8208838992552133
 10
55.35540394509258
 20
81.43617820200677
 30
0.0
 10
55.37759297258484
 20
81.44745903666515
 30
0.0
 10
55.41775103549767
 20
81.46787527473951
 30
0.0
 10
55.47253553044413
 20
81.4891765302985
 30
0.0
 10
55.53065410582123
 20
81.508667246247
 30
0.0
 10
55.59239087852993
 20
81.52541284401121
 30
0.0
 10
55.65648268229013
 20
81.53870506074108
 30
0.0
 10
55.71818167610577
 20
81.54890893806112
 30
0.0
 10
55.77907614380687
 20
81.5567316550367
 30
0.0
 10
55.8411580528732
 20
81.56266198780969
 30
0.0
 10
55.88715968122352
 20
81.56602828555636
 30
0.0
 10
55.93951027968298
 20
81.56899144182799
 30
0.0
 10
56.00000020884264
 20
81.57159104755829
 30
0.0
 10
56.07009371529606
 20
81.57320658447944
 30
0.0
 10
56.12098692644305
 20
81.57376570008043
 30
0.0
 10
56.1475819415822
 20
81.57376987009971
 30
0.0
 10
56.15627912179957
 20
81.57377123379172
 30
0.0
 11
55.35540394509258
 21
81.43617820200677
 31
0.0
 11
55.42253811997251
 21
81.46877513197155
 31
0.0
 11
55.47874604361668
 21
81.49098319982642
 31
0.0
 11
55.51766543751069
 21
81.50402951377566
 31
0.0
 11
55.59715000809641
 21
81.52576408585334
 31
0.0
 11
55.66396388204792
 21
81.53969144223004
 31
0.0
 11
55.70898427464567
 21
81.54717476011206
 31
0.0
 11
55.782064485646
 21
81.55668686848792
 31
0.0
 11
55.84656206814955
 21
81.56290307186323
 31
0.0
 11
55.89501470456314
 21
81.56642612870088
 31
0.0
 11
55.91996007729358
 21
81.56785879746371
 31
0.0
 11
56.00361787647624
 21
81.57144924524798
 31
0.0
 11
56.07649717494896
 21
81.57318538731177
 31
0.0
 11
56.1301876857205
 21
81.57373634353355
 31
0.0
 11
56.15627912179957
 21
81.57377123379172
 31
0.0
  0
SPLINE
  5
495
330
1F
100
AcDbEntity
  8
0
  6
CONTINUOUS
 62
     7
100
AcDbSpline
210
0.0
220
0.0
230
1.0
 70
     8
 71
     3
 72
    21
 73
    17
 74
    15
 42
0.0000000001
 43
0.0000000001
 44
0.00000001
 40
0.0
 40
0.0
 40
0.0
 40
0.0
 40
0.0711513597463341
 40
0.1533416613609711
 40
0.2442765083805756
 40
0.3349605502436473
 40
0.4073024293024237
 40
0.4607613660608098
 40
0.5459757227242756
 40
0.617468787297166
 40
0.6720844052355948
 40
0.7059339494112586
 40
0.7466316580552239
 40
0.8112908055037487
 40
0.8366544199248308
 40
0.8830171459023305
 40
0.8830171459023305
 40
0.8830171459023305
 40
0.8830171459023305
 10
54.95638758151563
 20
80.69945942267327
 30
0.0
 10
54.9567503430604
 20
80.72318025587028
 30
0.0
 10
54.95753214762675
 20
80.77430214565936
 30
0.0
 10
54.96537191853263
 20
80.85545418910912
 30
0.0
 10
54.98094709297111
 20
80.94212021891231
 30
0.0
 10
55.00435152426598
 20
81.02365104067624
 30
0.0
 10
55.03120886056623
 20
81.09074798956394
 30
0.0
 10
55.06284658642475
 20
81.15362891304093
 30
0.0
 10
55.10020197470273
 20
81.2131036828913
 30
0.0
 10
55.14397737700304
 20
81.26842802673525
 30
0.0
 10
55.18055562719499
 20
81.30730018769074
 30
0.0
 10
55.21209252486883
 20
81.3366330948468
 30
0.0
 10
55.24758188636024
 20
81.36655977739424
 30
0.0
 10
55.28288274703817
 20
81.3922052965062
 30
0.0
 10
55.32110898926213
 20
81.41683251179649
 30
0.0
 10
55.34193946706451
 20
81.428582927003
 30
0.0
 10
55.35540394509258
 20
81.43617820200677
 30
0.0
 11
54.95638758151563
 21
80.69945942267327
 31
0.0
 11
54.95836710858411
 21
80.77058324052874
 31
0.0
 11
54.96614267873949
 21
80.85240491362495
 31
0.0
 11
54.98246977540657
 21
80.94186201125785
 31
0.0
 11
55.00765121249345
 21
81.02897969416358
 31
0.0
 11
55.03462769726521
 21
81.09610358510498
 31
0.0
 11
55.05865860689073
 21
81.14385683946432
 31
0.0
 11
55.10400349223802
 21
81.21600479823246
 31
0.0
 11
55.14834592935494
 21
81.27208515622486
 31
0.0
 11
55.18582657607497
 21
81.31181004570544
 31
0.0
 11
55.21058609023157
 21
81.33489159893804
 31
0.0
 11
55.24171065213177
 21
81.36111306219603
 31
0.0
 11
55.29396965492265
 21
81.39918932745502
 31
0.0
 11
55.31531424222885
 21
81.4128904781085
 31
0.0
 11
55.35540394509258
 21
81.43617820200677
 31
0.0
  0
SPLINE
  5
496
330
1F
100
AcDbEntity
  8
0
  6
CONTINUOUS
 62
     7
100
AcDbSpline
210
0.0
220
0.0
230
1.0
 70
     8
 71
     3
 72
    19
 73
    15
 74
    13
 42
0.0000000001
 43
0.0000000001
 44
0.00000001
 40
0.0
 40
0.0
 40
0.0
 40
0.0
 40
0.0440825278010036
 40
0.1115190048696139
 40
0.1966488394323304
 40
0.3112942273966088
 40
0.402665513817931
 40
0.4680462463416361
 40
0.5619110888457982
 40
0.6333002337455286
 40
0.6696627849492989
 40
0.7108329615035563
 40
0.7800122985623814
 40
0.8748711936281083
 40
0.8748711936281083
 40
0.8748711936281083
 40
0.8748711936281083
 10
68.84780904673357
 20
81.45904001768747
 30
0.0
 10
68.86084376230818
 20
81.45224822201023
 30
0.0
 10
68.89381869777925
 20
81.43506648736421
 30
0.0
 10
68.94907990223255
 20
81.39958993508442
 30
0.0
 10
69.01913885226102
 20
81.344317107315
 30
0.0
 10
69.08651953830298
 20
81.27383156617452
 30
0.0
 10
69.1389605036866
 20
81.19979026321852
 30
0.0
 10
69.17903514709229
 20
81.12635239365443
 30
0.0
 10
69.20804796050234
 20
81.05493357491707
 30
0.0
 10
69.22708456930155
 20
80.9903920184865
 30
0.0
 10
69.23773400967433
 20
80.94189227862607
 30
0.0
 10
69.24646024748087
 20
80.89376414414002
 30
0.0
 10
69.25450867056311
 20
80.8257380856692
 30
0.0
 10
69.2556991558895
 20
80.7710416684043
 30
0.0
 10
69.25638758151558
 20
80.73941220228164
 30
0.0
 11
68.84780904673357
 21
81.45904001768747
 31
0.0
 11
68.88665748740254
 21
81.4382057210851
 31
0.0
 11
68.94354654332682
 21
81.40199365465041
 31
0.0
 11
69.01028471040172
 21
81.349143812757
 31
0.0
 11
69.0894683969944
 21
81.26623718600696
 31
0.0
 11
69.14220781164093
 21
81.19162307122276
 31
0.0
 11
69.17356484645165
 21
81.13425255132609
 31
0.0
 11
69.20920249279003
 21
81.04741611414795
 31
0.0
 11
69.2293082027573
 21
80.97891669490788
 31
0.0
 11
69.23718502977772
 21
80.94341752976084
 31
0.0
 11
69.24448313533443
 21
80.90289937219177
 31
0.0
 11
69.25256897528477
 21
80.83419420595082
 31
0.0
 11
69.25638758151558
 21
80.73941220228164
 31
0.0
  0
SPLINE
  5
497
330
1F
100
AcDbEntity
  8
0
  6
CONTINUOUS
 62
     7
100
AcDbSpline
210
0.0
220
0.0
230
1.0
 70
     8
 71
     3
 72
    13
 73
     9
 74
     7
 42
0.0000000001
 43
0.0000000001
 44
0.00000001
 40
0.0
 40
0.0
 40
0.0
 40
0.0
 40
0.7845036490974444
 40
1.524328631762169
 40
2.179598006012359
 40
2.721047922334724
 40
3.139622837661421
 40
3.466884184704673
 40
3.466884184704673
 40
3.466884184704673
 40
3.466884184704673
 10
54.95638758151563
 20
73.51195152710318
 30
0.0
 10
54.96400238990575
 20
73.25024877766987
 30
0.0
 10
54.97879833185939
 20
72.74174764522644
 30
0.0
 10
55.09736821515465
 20
72.02367537734183
 30
0.0
 10
55.2776888679097
 20
71.39874827550945
 30
0.0
 10
55.51621175427879
 20
70.9204493496118
 30
0.0
 10
55.79917110475505
 20
70.56647855039782
 30
0.0
 10
56.04744768234411
 20
70.50983545466978
 30
0.0
 10
56.15638758151567
 20
70.484981345606
 30
0.0
 11
54.95638758151563
 21
73.51195152710318
 31
0.0
 11
54.99727689899437
 21
72.72851420404324
 31
0.0
 11
55.11715709697421
 21
71.99846643635459
 31
0.0
 11
55.30785967031434
 21
71.37156095595768
 31
0.0
 11
55.55638758151565
 21
70.89051845342863
 31
0.0
 11
55.8458048101957
 21
70.58812363289773
 31
0.0
 11
56.15638758151567
 21
70.484981345606
 31
0.0
  0
SPLINE
  5
498
330
1F
100
AcDbEntity
  8
0
  6
CONTINUOUS
 62
     7
100
AcDbSpline
210
0.0
220
0.0
230
1.0
 70
     8
 71
     3
 72
    13
 73
     9
 74
     7
 42
0.0000000001
 43
0.0000000001
 44
0.00000001
 40
0.0
 40
0.0
 40
0.0
 40
0.0
 40
0.327261347043333
 40
0.7458362623699714
 40
1.287286178692292
 40
1.94255555294251
 40
2.682380535607275
 40
3.466884184704729
 40
3.466884184704729
 40
3.466884184704729
 40
3.466884184704729
 10
68.05638758151554
 20
70.484981345606
 30
0.0
 10
68.16532748068714
 20
70.50983545466977
 30
0.0
 10
68.4136040582762
 20
70.5664785503978
 30
0.0
 10
68.69656340875244
 20
70.92044934961181
 30
0.0
 10
68.93508629512152
 20
71.3987482755094
 30
0.0
 10
69.11540694787672
 20
72.0236753773418
 30
0.0
 10
69.23397683117192
 20
72.74174764522641
 30
0.0
 10
69.2487727731255
 20
73.25024877766987
 30
0.0
 10
69.25638758151558
 20
73.51195152710318
 30
0.0
 11
68.05638758151554
 21
70.484981345606
 31
0.0
 11
68.3669703528356
 21
70.58812363289773
 31
0.0
 11
68.65638758151556
 21
70.89051845342863
 31
0.0
 11
68.90491549271688
 21
71.37156095595762
 31
0.0
 11
69.09561806605711
 21
71.99846643635453
 31
0.0
 11
69.21549826403694
 21
72.72851420404322
 31
0.0
 11
69.25638758151558
 21
73.51195152710318
 31
0.0
  0
SPLINE
  5
499
330
1F
100
AcDbEntity
  8
0
  6
CONTINUOUS
 62
     7
100
AcDbSpline
210
0.0
220
0.0
230
1.0
 70
     8
 71
     3
 72
    17
 73
    13
 74
    11
 42
0.0000000001
 43
0.0000000001
 44
0.00000001
 40
0.0
 40
0.0
 40
0.0
 40
0.0
 40
0.0286657320575052
 40
0.0607414324510874
 40
0.0938663201640714
 40
0.1333092856898838
 40
0.2058017533091734
 40
0.2785567403699711
 40
0.3455691503157393
 40
0.445683342223518
 40
0.5295393111606778
 40
0.6137284033259253
 40
0.6137284033259253
 40
0.6137284033259253
 40
0.6137284033259253
 10
15.49638741193758
 20
140.6718078096818
 30
0.0
 10
15.48682961439923
 20
140.6716066799391
 30
0.0
 10
15.46657705945342
 20
140.6711804948114
 30
0.0
 10
15.43547236894838
 20
140.6672660750646
 30
0.0
 10
15.40134012873535
 20
140.6598631662078
 30
0.0
 10
15.35532504991716
 20
140.644704672251
 30
0.0
 10
15.30011407967015
 20
140.6165557768494
 30
0.0
 10
15.24380533459703
 20
140.5730948949313
 30
0.0
 10
15.18940407259353
 20
140.5140167832726
 30
0.0
 10
15.14608535277181
 20
140.4415782330414
 30
0.0
 10
15.11702119331803
 20
140.3560467305783
 30
0.0
 10
15.11356083585681
 20
140.2999245344924
 30
0.0
 10
15.11182722731564
 20
140.2718078096818
 30
0.0
 11
15.49638741193758
 21
140.6718078096818
 31
0.0
 11
15.46774175485865
 21
140.6707351844401
 31
0.0
 11
15.43590203189865
 21
140.6668515524327
 31
0.0
 11
15.40353645746177
 21
140.6597997599394
 31
0.0
 11
15.36606279909665
 21
140.6474923451741
 31
0.0
 11
15.30141024819321
 21
140.6147020185028
 31
0.0
 11
15.24373994384064
 21
140.5703463634169
 31
0.0
 11
15.19836702416711
 21
140.5210314443047
 31
0.0
 11
15.14677759585265
 21
140.4352329460222
 31
0.0
 11
15.12073094779802
 21
140.3555247554048
 31
0.0
 11
15.11182722731564
 21
140.2718078096818
 31
0.0
  0
SPLINE
  5
49A
330
1F
100
AcDbEntity
  8
0
  6
CONTINUOUS
 62
     7
100
AcDbSpline
210
0.0
220
0.0
230
1.0
 70
     8
 71
     3
 72
    17
 73
    13
 74
    11
 42
0.0000000001
 43
0.0000000001
 44
0.00000001
 40
0.0
 40
0.0
 40
0.0
 40
0.0
 40
0.0988150838063828
 40
0.1680128824114904
 40
0.2339153025254431
 40
0.3351342743546926
 40
0.4078996508657724
 40
0.4803909627017184
 40
0.5197727138179654
 40
0.5529521803050244
 40
0.5850181536923912
 40
0.6136885485977851
 40
0.6136885485977851
 40
0.6136885485977851
 40
0.6136885485977851
 10
15.11182722938474
 20
126.7718078096818
 30
0.0
 10
15.11416541771456
 20
126.7387755227323
 30
0.0
 10
15.11814098243384
 20
126.6826115290459
 30
0.0
 10
15.1447931544869
 20
126.6086251597907
 30
0.0
 10
15.18247000902336
 20
126.5392286673348
 30
0.0
 10
15.23476606678109
 20
126.477487351037
 30
0.0
 10
15.30011757849768
 20
126.4270704143279
 30
0.0
 10
15.35531996405928
 20
126.3989180111617
 30
0.0
 10
15.40132963207193
 20
126.3837572167959
 30
0.0
 10
15.43545614486096
 20
126.3763514504939
 30
0.0
 10
15.46657718177814
 20
126.3724350823351
 30
0.0
 10
15.48682805925456
 20
126.3720089595059
 30
0.0
 10
15.49638741669969
 20
126.3718078096819
 30
0.0
 11
15.11182722938474
 21
126.7718078096818
 31
0.0
 11
15.12408844020107
 21
126.6737563767653
 31
0.0
 11
15.14678101645563
 21
126.6083852645312
 31
0.0
 11
15.1783615550558
 21
126.55054238633
 31
0.0
 11
15.24374498091765
 21
126.4732747483388
 31
0.0
 11
15.30142345602769
 21
126.4289126752608
 31
0.0
 11
15.36607464402459
 21
126.3961222165527
 31
0.0
 11
15.4034888788994
 21
126.3838300503598
 31
0.0
 11
15.4359070586786
 21
126.3767633243732
 31
0.0
 11
15.46773710253802
 21
126.372880676155
 31
0.0
 11
15.49638741669969
 21
126.3718078096819
 31
0.0
  0
SPLINE
  5
49B
330
1F
100
AcDbEntity
  8
0
  6
CONTINUOUS
 62
     7
100
AcDbSpline
210
0.0
220
0.0
230
1.0
 70
     8
 71
     3
 72
    11
 73
     7
 74
     5
 42
0.0000000001
 43
0.0000000001
 44
0.00000001
 40
0.0
 40
0.0
 40
0.0
 40
0.0
 40
0.0363879313002687
 40
0.0880077295419202
 40
0.1555394104415695
 40
0.2323577022170567
 40
0.2323577022170567
 40
0.2323577022170567
 40
0.2323577022170567
 10
16.2872966436787
 20
127.8718078096819
 30
0.0
 10
16.27543447432931
 20
127.8758189945028
 30
0.0
 10
16.24674467101877
 20
127.8855204327613
 30
0.0
 10
16.22226484760199
 20
127.9356565144565
 30
0.0
 10
16.2042085856806
 20
127.9975885409735
 30
0.0
 10
16.20207071275296
 20
128.0460292584364
 30
0.0
 10
16.20093300733265
 20
128.0718078096818
 30
0.0
 11
16.2872966436787
 21
127.8718078096819
 31
0.0
 11
16.25424681137854
 21
127.8870324649898
 31
0.0
 11
16.2262283307706
 21
127.9303864534445
 31
0.0
 11
16.20750729030523
 21
127.9952713559182
 31
0.0
 11
16.20093300733265
 21
128.0718078096818
 31
0.0
  0
SPLINE
  5
49C
330
1F
100
AcDbEntity
  8
0
  6
CONTINUOUS
 62
     7
100
AcDbSpline
210
0.0
220
0.0
230
1.0
 70
     8
 71
     3
 72
    11
 73
     7
 74
     5
 42
0.0000000001
 43
0.0000000001
 44
0.00000001
 40
0.0
 40
0.0
 40
0.0
 40
0.0
 40
0.0768182917755863
 40
0.1443499726751674
 40
0.1959697709168308
 40
0.2323577022171352
 40
0.2323577022171352
 40
0.2323577022171352
 40
0.2323577022171352
 10
16.20093300733265
 20
138.9718078096818
 30
0.0
 10
16.20207071275296
 20
138.9975863609273
 30
0.0
 10
16.20420858568058
 20
139.0460270783902
 30
0.0
 10
16.22226484760201
 20
139.1079591049071
 30
0.0
 10
16.2467446710188
 20
139.1580951866023
 30
0.0
 10
16.27543447432931
 20
139.1677966248609
 30
0.0
 10
16.2872966436787
 20
139.1718078096818
 30
0.0
 11
16.20093300733265
 21
138.9718078096818
 31
0.0
 11
16.20750729030523
 21
139.0483442634454
 31
0.0
 11
16.2262283307706
 21
139.1132291659191
 31
0.0
 11
16.25424681137854
 21
139.1565831543738
 31
0.0
 11
16.2872966436787
 21
139.1718078096818
 31
0.0
  0
SPLINE
  5
49D
330
1F
100
AcDbEntity
  8
0
  6
CONTINUOUS
 62
     7
100
AcDbSpline
210
0.0
220
0.0
230
1.0
 70
     8
 71
     3
 72
    23
 73
    19
 74
    17
 42
0.0000000001
 43
0.0000000001
 44
0.00000001
 40
0.0
 40
0.0
 40
0.0
 40
0.0
 40
0.1428756657350415
 40
0.2881321067621367
 40
0.4567820661501988
 40
0.5894224528472785
 40
0.8955286142218217
 40
1.107380894021305
 40
1.39249418942872
 40
1.683761042114278
 40
2.042853624193584
 40
2.260014046465903
 40
2.581367761396817
 40
2.778049662818758
 40
2.931555901039301
 40
3.079365320315447
 40
3.244181674786007
 40
3.367474327710984
 40
3.367474327710984
 40
3.367474327710984
 40
3.367474327710984
 10
57.90638758151567
 20
37.28706295036056
 30
0.0
 10
57.90373902400291
 20
37.23936611099444
 30
0.0
 10
57.89839777535779
 20
37.14317764711748
 30
0.0
 10
57.85365504415338
 20
36.99623872488539
 30
0.0
 10
57.78455663910915
 20
36.86340346617059
 30
0.0
 10
57.66073000491896
 20
36.70239433649796
 30
0.0
 10
57.49013684471859
 20
36.56278046362582
 30
0.0
 10
57.25017195840871
 20
36.44210605295191
 30
0.0
 10
56.99596564055116
 20
36.36840802706973
 30
0.0
 10
56.68389534798067
 20
36.33959568612694
 30
0.0
 10
56.3936015125191
 20
36.37261154143374
 30
0.0
 10
56.10762081617774
 20
36.46325204963488
 30
0.0
 10
55.89046701501268
 20
36.58375816754424
 30
0.0
 10
55.72465298214355
 20
36.73607829703818
 30
0.0
 10
55.62436118112805
 20
36.86945613878317
 30
0.0
 10
55.55414329507025
 20
37.00874131594446
 30
0.0
 10
55.51305631492309
 20
37.14980135182533
 30
0.0
 10
55.50838612919482
 20
37.24592712554414
 30
0.0
 10
55.50638758151558
 20
37.28706295036056
 30
0.0
 11
57.90638758151567
 21
37.28706295036056
 31
0.0
 11
57.89281558337981
 21
37.14483335876362
 31
0.0
 11
57.85212948143271
 21
37.00539134655708
 31
0.0
 11
57.77434696235209
 21
36.85574947899634
 31
0.0
 11
57.69375393823566
 21
36.75040131030357
 31
0.0
 11
57.45880160476742
 21
36.55419126206627
 31
0.0
 11
57.26992326293976
 21
36.45824148121881
 31
0.0
 11
56.99638544586109
 21
36.37782597372238
 31
0.0
 11
56.70638758151563
 21
36.3506668472927
 31
0.0
 11
56.34969256332421
 21
36.39209324590286
 31
0.0
 11
56.14285190009264
 21
36.45824148121881
 31
0.0
 11
55.86330181204676
 21
36.61673425194808
 31
0.0
 11
55.7190212247956
 21
36.75040131030357
 31
0.0
 11
55.62718281535334
 21
36.87340485384496
 31
0.0
 11
55.56064568159854
 21
37.00539134655708
 31
0.0
 11
55.5165009492035
 21
37.16418578381084
 31
0.0
 11
55.50638758151558
 21
37.28706295036056
 31
0.0
  0
SPLINE
  5
49E
330
1F
100
AcDbEntity
  8
0
  6
CONTINUOUS
 62
     7
100
AcDbSpline
210
0.0
220
0.0
230
1.0
 70
    11
 71
     3
 72
    21
 73
    17
 74
    15
 42
0.0000000001
 43
0.0000000001
 44
0.00000001
 40
0.0
 40
0.0
 40
0.0
 40
0.0
 40
0.3955463999838142
 40
0.7550570301933036
 40
1.063787597280014
 40
1.347009547727709
 40
1.655743131685207
 40
2.015250531258831
 40
2.410798238016258
 40
2.806345944774105
 40
3.165853344348166
 40
3.474586928305698
 40
3.757808878753394
 40
4.066539445840104
 40
4.426050076049965
 40
4.821596476033358
 40
4.821596476033358
 40
4.821596476033358
 40
4.821596476033358
 10
56.70638758151563
 20
36.43853481293672
 30
0.0
 10
56.83886669692903
 20
36.45022099794434
 30
0.0
 10
57.09175558038433
 20
36.47252871240337
 30
0.0
 10
57.41239422067589
 20
36.6475419336461
 30
0.0
 10
57.61228249717085
 20
36.91352092571738
 30
0.0
 10
57.61229707910441
 20
37.2361701509099
 30
0.0
 10
57.41238381795239
 20
37.50336198223177
 30
0.0
 10
57.09176062652395
 20
37.67241170131894
 30
0.0
 10
56.70638758151598
 20
37.7317068567064
 30
0.0
 10
56.3210145365079
 20
37.67241170131889
 30
0.0
 10
56.00039134507904
 20
37.50336198223191
 30
0.0
 10
55.80047808392681
 20
37.23617015090991
 30
0.0
 10
55.80049266586042
 20
36.91352092571741
 30
0.0
 10
56.00038094235538
 20
36.64754193364596
 30
0.0
 10
56.32101958264715
 20
36.47252871240354
 30
0.0
 10
56.57390846610241
 20
36.45022099794439
 30
0.0
 10
56.70638758151563
 20
36.43853481293672
 30
0.0
 11
56.70638758151563
 21
36.43853481293672
 31
0.0
 11
57.09688029935396
 21
36.50156172667516
 31
0.0
 11
57.41003591573667
 21
36.6781444357992
 31
0.0
 11
57.58381675389792
 21
36.93332042084022
 31
0.0
 11
57.5838227024791
 21
37.21654237122544
 31
0.0
 11
57.41003114534516
 21
37.47171470619184
 31
0.0
 11
57.09688294672162
 21
37.64830399252321
 31
0.0
 11
56.70638758151613
 21
37.711322704618
 31
0.0
 11
56.3158922163102
 21
37.64830399252321
 31
0.0
 11
56.00274401768617
 21
37.47171470619183
 31
0.0
 11
55.82895246055216
 21
37.21654237122544
 31
0.0
 11
55.82895840913334
 21
36.93332042084022
 31
0.0
 11
56.00273924729458
 21
36.6781444357992
 31
0.0
 11
56.31589486367773
 21
36.50156172667516
 31
0.0
 11
56.70638758151563
 21
36.43853481293672
 31
0.0
  0
SPLINE
  5
49F
330
1F
100
AcDbEntity
  8
0
  6
CONTINUOUS
 62
     7
100
AcDbSpline
210
0.0
220
0.0
230
1.0
 70
     8
 71
     3
 72
    11
 73
     7
 74
     5
 42
0.0000000001
 43
0.0000000001
 44
0.00000001
 40
0.0
 40
0.0
 40
0.0
 40
0.0
 40
0.4637392128077353
 40
0.8943133064939219
 40
1.273055130933891
 40
1.610375990409971
 40
1.610375990409971
 40
1.610375990409971
 40
1.610375990409971
 10
56.70638758151563
 20
38.4184338002591
 30
0.0
 10
56.55092081432598
 20
38.40639242956833
 30
0.0
 10
56.25110575712282
 20
38.38317084782634
 30
0.0
 10
55.86233872199759
 20
38.19940014704301
 30
0.0
 10
55.56898657973027
 20
37.92369578448638
 30
0.0
 10
55.52643341193753
 20
37.68319847878823
 30
0.0
 10
55.50638758151558
 20
37.56990566283514
 30
0.0
 11
56.70638758151563
 21
38.4184338002591
 31
0.0
 11
56.24716885893443
 21
38.35384105820219
 31
0.0
 11
55.85785944409213
 21
38.16990566283516
 31
0.0
 11
55.59773551336343
 21
37.89462233562051
 31
0.0
 11
55.50638758151558
 21
37.56990566283514
 31
0.0
  0
SPLINE
  5
4A0
330
1F
100
AcDbEntity
  8
0
  6
CONTINUOUS
 62
     7
100
AcDbSpline
210
0.0
220
0.0
230
1.0
 70
     8
 71
     3
 72
    11
 73
     7
 74
     5
 42
0.0000000001
 43
0.0000000001
 44
0.00000001
 40
0.0
 40
0.0
 40
0.0
 40
0.0
 40
0.3373208594760642
 40
0.71606268391576
 40
1.146636777601606
 40
1.610375990410164
 40
1.610375990410164
 40
1.610375990410164
 40
1.610375990410164
 10
57.90638758151567
 20
37.56990566283514
 30
0.0
 10
57.88634175109372
 20
37.68319847878822
 30
0.0
 10
57.84378858330103
 20
37.92369578448625
 30
0.0
 10
57.55043644103419
 20
38.19940014704304
 30
0.0
 10
57.16166940590892
 20
38.38317084782652
 30
0.0
 10
56.86185434870557
 20
38.40639242956838
 30
0.0
 10
56.70638758151563
 20
38.4184338002591
 30
0.0
 11
57.90638758151567
 21
37.56990566283514
 31
0.0
 11
57.81503964966788
 21
37.89462233562051
 31
0.0
 11
57.55491571893958
 21
38.16990566283516
 31
0.0
 11
57.16560630409766
 21
38.35384105820219
 31
0.0
 11
56.70638758151563
 21
38.4184338002591
 31
0.0
  0
SPLINE
  5
4A1
330
1F
100
AcDbEntity
  8
0
  6
CONTINUOUS
 62
     7
100
AcDbSpline
210
0.0
220
0.0
230
1.0
 70
     8
 71
     3
 72
    15
 73
    11
 74
     9
 42
0.0000000001
 43
0.0000000001
 44
0.00000001
 40
0.0
 40
0.0
 40
0.0
 40
0.0
 40
0.3373208594759646
 40
0.7160626839156232
 40
1.146636777601473
 40
1.610375990410016
 40
2.07411520321818
 40
2.504689296904068
 40
2.883431121344068
 40
3.220751980820052
 40
3.220751980820052
 40
3.220751980820052
 40
3.220751980820052
 10
68.70638758151563
 20
41.67112499371717
 30
0.0
 10
68.68634175109368
 20
41.78434059277375
 30
0.0
 10
68.64378858330096
 20
42.02467398291009
 30
0.0
 10
68.35043644103426
 20
42.30178743443201
 30
0.0
 10
67.96166940590899
 20
42.47919117073278
 30
0.0
 10
67.50638758151582
 20
42.54063436616474
 30
0.0
 10
67.05110575712266
 20
42.47919117073273
 30
0.0
 10
66.66233872199749
 20
42.30178743443187
 30
0.0
 10
66.36898657973023
 20
42.02467398291026
 30
0.0
 10
66.3264334119375
 20
41.78434059277376
 30
0.0
 10
66.30638758151554
 20
41.67112499371717
 30
0.0
 11
68.70638758151563
 21
41.67112499371717
 31
0.0
 11
68.61503964966785
 21
41.99584166650244
 31
0.0
 11
68.35491571893965
 21
42.27112499371714
 31
0.0
 11
67.96560630409772
 21
42.45506038908416
 31
0.0
 11
67.5063875815157
 21
42.51965313114101
 31
0.0
 11
67.04716885893406
 21
42.45506038908416
 31
0.0
 11
66.65785944409208
 21
42.27112499371714
 31
0.0
 11
66.39773551336339
 21
41.99584166650244
 31
0.0
 11
66.30638758151554
 21
41.67112499371717
 31
0.0
  0
SPLINE
  5
4A2
330
1F
100
AcDbEntity
  8
0
  6
CONTINUOUS
 62
     7
100
AcDbSpline
210
0.0
220
0.0
230
1.0
 70
    11
 71
     3
 72
    21
 73
    17
 74
    15
 42
0.0000000001
 43
0.0000000001
 44
0.00000001
 40
0.0
 40
0.0
 40
0.0
 40
0.0
 40
0.3955463999838142
 40
0.755057030193307
 40
1.063787597280058
 40
1.347009547727754
 40
1.655743131685131
 40
2.015250531258809
 40
2.410798238016362
 40
2.80634594477425
 40
3.165853344348374
 40
3.474586928305847
 40
3.757808878753543
 40
4.06653944584035
 40
4.426050076050198
 40
4.821596476033495
 40
4.821596476033495
 40
4.821596476033495
 40
4.821596476033495
 10
67.50638758151558
 20
40.53975414381864
 30
0.0
 10
67.63886669692897
 20
40.55144032882626
 30
0.0
 10
67.89175558038426
 20
40.57374804328529
 30
0.0
 10
68.21239422067589
 20
40.74876126452803
 30
0.0
 10
68.41228249717079
 20
41.01474025659935
 30
0.0
 10
68.41229707910439
 20
41.33738948179183
 30
0.0
 10
68.21238381795237
 20
41.60458131311369
 30
0.0
 10
67.891760626524
 20
41.77363103220097
 30
0.0
 10
67.50638758151598
 20
41.83292618758873
 30
0.0
 10
67.12101453650783
 20
41.77363103220088
 30
0.0
 10
66.80039134507905
 20
41.60458131311382
 30
0.0
 10
66.60047808392676
 20
41.33738948179188
 30
0.0
 10
66.60049266586036
 20
41.01474025659932
 30
0.0
 10
66.80038094235546
 20
40.74876126452793
 30
0.0
 10
67.1210195826472
 20
40.57374804328547
 30
0.0
 10
67.37390846610239
 20
40.55144032882631
 30
0.0
 10
67.50638758151558
 20
40.53975414381864
 30
0.0
 11
67.50638758151558
 21
40.53975414381864
 31
0.0
 11
67.89688029935391
 21
40.60278105755707
 31
0.0
 11
68.21003591573663
 21
40.77936376668112
 31
0.0
 11
68.38381675389788
 21
41.03453975172219
 31
0.0
 11
68.38382270247905
 21
41.31776170210742
 31
0.0
 11
68.21003114534521
 21
41.57293403707374
 31
0.0
 11
67.89688294672169
 21
41.74952332340524
 31
0.0
 11
67.5063875815161
 21
41.8125420355002
 31
0.0
 11
67.11589221631016
 21
41.74952332340524
 31
0.0
 11
66.80274401768612
 21
41.57293403707374
 31
0.0
 11
66.62895246055211
 21
41.31776170210742
 31
0.0
 11
66.6289584091333
 21
41.03453975172219
 31
0.0
 11
66.80273924729465
 21
40.77936376668112
 31
0.0
 11
67.11589486367778
 21
40.60278105755708
 31
0.0
 11
67.50638758151558
 21
40.53975414381864
 31
0.0
  0
SPLINE
  5
4A3
330
1F
100
AcDbEntity
  8
0
  6
CONTINUOUS
 62
     7
100
AcDbSpline
210
0.0
220
0.0
230
1.0
 70
     8
 71
     3
 72
    23
 73
    19
 74
    17
 42
0.0000000001
 43
0.0000000001
 44
0.00000001
 40
0.0
 40
0.0
 40
0.0
 40
0.0
 40
0.1636466146544309
 40
0.2881042651097444
 40
0.4359136843857027
 40
0.5894199226064963
 40
0.786101824028246
 40
1.107455538958306
 40
1.392568834365747
 40
1.6838356870513
 40
1.975102539736201
 40
2.260215835143179
 40
2.472068114943399
 40
2.778174276318162
 40
2.931680514537882
 40
3.079489933814743
 40
3.203947584269899
 40
3.367594198924477
 40
3.367594198924477
 40
3.367594198924477
 40
3.367594198924477
 10
68.70638758151563
 20
41.3882822812426
 30
0.0
 10
68.7029690272947
 20
41.33361618859111
 30
0.0
 10
68.69695057067318
 20
41.23737506265621
 30
0.0
 10
68.65251265520286
 20
41.09795547425132
 30
0.0
 10
68.5884251029318
 20
40.97065908241473
 30
0.0
 10
68.48812090407677
 20
40.83730444758417
 30
0.0
 10
68.32229216820399
 20
40.6849676327116
 30
0.0
 10
68.0851921510626
 20
40.55337618491541
 30
0.0
 10
67.79607438965061
 20
40.4696715634097
 30
0.0
 10
67.50636793322502
 20
40.44290984217946
 30
0.0
 10
67.21677853633048
 20
40.46962685313157
 30
0.0
 10
66.96261148347918
 20
40.54332208669327
 30
0.0
 10
66.7226280383524
 20
40.66401111428249
 30
0.0
 10
66.54661091884509
 20
40.80804044744563
 30
0.0
 10
66.42436513241347
 20
40.97065221814049
 30
0.0
 10
66.36025927783128
 20
41.0979569452651
 30
0.0
 10
66.31582562381892
 20
41.23737459290574
 30
0.0
 10
66.30980650938287
 20
41.33361601842414
 30
0.0
 10
66.30638758151554
 20
41.3882822812426
 30
0.0
 11
68.70638758151563
 21
41.3882822812426
 31
0.0
 11
68.68859786182514
 21
41.22560548399976
 31
0.0
 11
68.65212948143267
 21
41.10661067743911
 31
0.0
 11
68.58559234767787
 21
40.97462418472719
 31
0.0
 11
68.49375393823561
 21
40.85162064118549
 31
0.0
 11
68.3494733509846
 21
40.71795358283013
 31
0.0
 11
68.06992326293971
 21
40.55946081210084
 31
0.0
 11
67.79638544586103
 21
40.47904530460431
 31
0.0
 11
67.50638758151558
 21
40.45188617817462
 31
0.0
 11
67.21638971717078
 21
40.47904530460431
 31
0.0
 11
66.94285190009259
 21
40.55946081210084
 31
0.0
 11
66.75397355826402
 21
40.65541059294812
 31
0.0
 11
66.51902122479555
 21
40.85162064118549
 31
0.0
 11
66.42718281535417
 21
40.97462418472651
 31
0.0
 11
66.36064568159873
 21
41.10661067743911
 31
0.0
 11
66.32417730120646
 21
41.22560548399966
 31
0.0
 11
66.30638758151554
 21
41.3882822812426
 31
0.0
  0
SPLINE
  5
4A4
330
1F
100
AcDbEntity
  8
0
  6
CONTINUOUS
 62
     7
100
AcDbSpline
210
0.0
220
0.0
230
1.0
 70
     8
 71
     3
 72
    11
 73
     7
 74
     5
 42
0.0000000001
 43
0.0000000001
 44
0.00000001
 40
0.0
 40
0.0
 40
0.0
 40
0.0
 40
0.8115436224141271
 40
1.565048286364749
 40
2.227846479134607
 40
2.818157983217607
 40
2.818157983217607
 40
2.818157983217607
 40
2.818157983217607
 10
67.40638758151567
 20
39.54980457342015
 30
0.0
 10
67.13432073893358
 20
39.57087697212894
 30
0.0
 10
66.60964438882789
 20
39.6115147401773
 30
0.0
 10
65.92930207735868
 20
39.93311346654821
 30
0.0
 10
65.41593582839101
 20
40.41559610102232
 30
0.0
 10
65.34146778475389
 20
40.83646638599402
 30
0.0
 10
65.30638758151554
 20
41.0347288139119
 30
0.0
 11
67.40638758151567
 21
39.54980457342015
 31
0.0
 11
66.60275481699797
 21
39.66284187201968
 31
0.0
 11
65.92146334102415
 21
39.98472881391194
 31
0.0
 11
65.46624646224906
 21
40.46647463653758
 31
0.0
 11
65.30638758151554
 21
41.0347288139119
 31
0.0
  0
SPLINE
  5
4A5
330
1F
100
AcDbEntity
  8
0
  6
CONTINUOUS
 62
     7
100
AcDbSpline
210
0.0
220
0.0
230
1.0
 70
     8
 71
     3
 72
    11
 73
     7
 74
     5
 42
0.0000000001
 43
0.0000000001
 44
0.00000001
 40
0.0
 40
0.0
 40
0.0
 40
0.0
 40
0.7342537536129039
 40
1.415996068615634
 40
2.015670623978801
 40
2.549761984815849
 40
2.549761984815849
 40
2.549761984815849
 40
2.549761984815849
 10
67.40638758151567
 20
40.32762203272534
 30
0.0
 10
67.16023186679848
 20
40.34668753631898
 30
0.0
 10
66.68552469289337
 20
40.38345504074364
 30
0.0
 10
66.06997688727846
 20
40.67442531698412
 30
0.0
 10
65.60550266202215
 20
41.11095722436546
 30
0.0
 10
65.53812681301702
 20
41.49174462505411
 30
0.0
 10
65.50638758151558
 20
41.67112491697981
 30
0.0
 11
67.40638758151567
 21
40.32762203272534
 31
0.0
 11
66.67929127076144
 21
40.42989387431539
 31
0.0
 11
66.06288469726155
 21
40.72112491697982
 31
0.0
 11
65.65102180694132
 21
41.15699018506971
 31
0.0
 11
65.50638758151558
 21
41.67112491697981
 31
0.0
  0
SPLINE
  5
4A6
330
1F
100
AcDbEntity
  8
0
  6
CONTINUOUS
 62
     7
100
AcDbSpline
210
0.0
220
0.0
230
1.0
 70
     8
 71
     3
 72
    11
 73
     7
 74
     5
 42
0.0000000001
 43
0.0000000001
 44
0.00000001
 40
0.0
 40
0.0
 40
0.0
 40
0.0
 40
0.8115436224141193
 40
1.565048286364717
 40
2.227846479134612
 40
2.818157983217672
 40
2.818157983217672
 40
2.818157983217672
 40
2.818157983217672
 10
67.40638758151567
 20
40.04477932025077
 30
0.0
 10
67.13432073893357
 20
40.06585171895954
 30
0.0
 10
66.60964438882789
 20
40.10648948700787
 30
0.0
 10
65.92930207735867
 20
40.42808821337871
 30
0.0
 10
65.41593582839101
 20
40.9105708478529
 30
0.0
 10
65.34146778475389
 20
41.33144113282462
 30
0.0
 10
65.30638758151554
 20
41.52970356074252
 30
0.0
 11
67.40638758151567
 21
40.04477932025077
 31
0.0
 11
66.60275481699797
 21
40.15781661885025
 31
0.0
 11
65.92146334102415
 21
40.47970356074245
 31
0.0
 11
65.46624646224906
 21
40.96144938336814
 31
0.0
 11
65.30638758151554
 21
41.52970356074252
 31
0.0
  0
SPLINE
  5
4A7
330
1F
100
AcDbEntity
  8
0
  6
CONTINUOUS
 62
     7
100
AcDbSpline
210
0.0
220
0.0
230
1.0
 70
     8
 71
     3
 72
     9
 73
     5
 74
     3
 42
0.0000000001
 43
0.0000000001
 44
0.00000001
 40
0.0
 40
0.0
 40
0.0
 40
0.0
 40
0.0772898688009279
 40
0.1490522177487598
 40
0.1490522177487598
 40
0.1490522177487598
 40
0.1490522177487598
 10
68.52354486904164
 20
39.54980457342015
 30
0.0
 10
68.54963206367302
 20
39.55146998271648
 30
0.0
 10
68.59994078168444
 20
39.55468169665682
 30
0.0
 10
68.64383365851235
 20
39.57934944868131
 30
0.0
 10
68.6649662252787
 20
39.59122592965741
 30
0.0
 11
68.52354486904164
 21
39.54980457342015
 31
0.0
 11
68.60008132280481
 21
39.56057003042963
 31
0.0
 11
68.6649662252787
 21
39.59122592965741
 31
0.0
  0
SPLINE
  5
4A8
330
1F
100
AcDbEntity
  8
0
  6
CONTINUOUS
 62
     7
100
AcDbSpline
210
0.0
220
0.0
230
1.0
 70
     8
 71
     3
 72
    11
 73
     7
 74
     5
 42
0.0000000001
 43
0.0000000001
 44
0.00000001
 40
0.0
 40
0.0
 40
0.0
 40
0.0
 40
0.6324766115175
 40
1.342617532342101
 40
2.149943958003455
 40
3.019454982019005
 40
3.019454982019005
 40
3.019454982019005
 40
3.019454982019005
 10
64.35638758151572
 20
31.26305120617428
 30
0.0
 10
64.3188016494747
 20
31.4754752360863
 30
0.0
 10
64.23901445986364
 20
31.9264076842702
 30
0.0
 10
63.68897919311287
 20
32.44335336406409
 30
0.0
 10
62.96004100225289
 20
32.78792342803284
 30
0.0
 10
62.39788776999667
 20
32.83146389379893
 30
0.0
 10
62.10638758151572
 20
32.85404146384406
 30
0.0
 11
64.35638758151572
 21
31.26305120617428
 31
0.0
 11
64.18511020930141
 21
31.87189496764681
 31
0.0
 11
63.69737783918561
 21
32.38805120617428
 31
0.0
 11
62.96742268635653
 21
32.73293007248739
 31
0.0
 11
62.10638758151572
 21
32.85404146384406
 31
0.0
  0
SPLINE
  5
4A9
330
1F
100
AcDbEntity
  8
0
  6
CONTINUOUS
 62
     7
100
AcDbSpline
210
0.0
220
0.0
230
1.0
 70
     8
 71
     3
 72
    11
 73
     7
 74
     5
 42
0.0000000001
 43
0.0000000001
 44
0.00000001
 40
0.0
 40
0.0
 40
0.0
 40
0.0
 40
0.8695110240156555
 40
1.676837449677109
 40
2.386978370501663
 40
3.019454982019136
 40
3.019454982019136
 40
3.019454982019136
 40
3.019454982019136
 10
62.10638758151572
 20
40.00942398119139
 30
0.0
 10
61.81488739303472
 20
39.98684641114627
 30
0.0
 10
61.25273416077844
 20
39.94330594538022
 30
0.0
 10
60.52379596991834
 20
39.59873588141157
 30
0.0
 10
59.97376070316767
 20
39.08179020161752
 30
0.0
 10
59.89397351355671
 20
38.63085775343365
 30
0.0
 10
59.85638758151572
 20
38.41843372352162
 30
0.0
 11
62.10638758151572
 21
40.00942398119139
 31
0.0
 11
61.2453524766748
 21
39.88831258983478
 31
0.0
 11
60.5153973238456
 21
39.54343372352167
 31
0.0
 11
60.02766495372991
 21
39.02727748499416
 31
0.0
 11
59.85638758151572
 21
38.41843372352162
 31
0.0
  0
SPLINE
  5
4AA
330
1F
100
AcDbEntity
  8
0
  6
CONTINUOUS
 62
     7
100
AcDbSpline
210
0.0
220
0.0
230
1.0
 70
     8
 71
     3
 72
    11
 73
     7
 74
     5
 42
0.0000000001
 43
0.0000000001
 44
0.00000001
 40
0.0
 40
0.0
 40
0.0
 40
0.0
 40
0.6050126017224665
 40
1.247364114346344
 40
1.61989358235705
 40
2.009689518635406
 40
2.009689518635406
 40
2.009689518635406
 40
2.009689518635406
 10
58.85638758151572
 20
38.63056575787766
 30
0.0
 10
58.87892917211805
 20
38.42788810355937
 30
0.0
 10
58.9254035283837
 20
38.01002435649565
 30
0.0
 10
59.22377063579152
 20
37.54046114955574
 30
0.0
 10
59.54584786767043
 20
37.19986158262736
 30
0.0
 10
59.75132302429615
 20
37.04926032125618
 30
0.0
 10
59.85638758151572
 20
36.9722541512524
 30
0.0
 11
58.85638758151572
 21
38.63056575787766
 31
0.0
 11
58.96712948302093
 21
38.03577463530269
 31
0.0
 11
59.29180501921632
 21
37.48151723844955
 31
0.0
 11
59.54921586219917
 21
37.21222583039649
 31
0.0
 11
59.85638758151572
 21
36.9722541512524
 31
0.0
  0
SPLINE
  5
4AB
330
1F
100
AcDbEntity
  8
0
  6
CONTINUOUS
 62
     7
100
AcDbSpline
210
0.0
220
0.0
230
1.0
 70
     8
 71
     3
 72
    11
 73
     7
 74
     5
 42
0.0000000001
 43
0.0000000001
 44
0.00000001
 40
0.0
 40
0.0
 40
0.0
 40
0.0
 40
0.8695110240156634
 40
1.67683744967712
 40
2.386978370501643
 40
3.019454982019112
 40
3.019454982019112
 40
3.019454982019112
 40
3.019454982019112
 10
62.10638758151572
 20
32.85404146384406
 30
0.0
 10
61.81488739303472
 20
32.83146389379893
 30
0.0
 10
61.25273416077845
 20
32.78792342803283
 30
0.0
 10
60.52379596991836
 20
32.44335336406417
 30
0.0
 10
59.97376070316767
 20
31.92640768427017
 30
0.0
 10
59.89397351355671
 20
31.4754752360863
 30
0.0
 10
59.85638758151572
 20
31.26305120617428
 30
0.0
 11
62.10638758151572
 21
32.85404146384406
 31
0.0
 11
61.2453524766748
 21
32.73293007248739
 31
0.0
 11
60.5153973238456
 21
32.38805120617428
 31
0.0
 11
60.02766495372991
 21
31.87189496764681
 31
0.0
 11
59.85638758151572
 21
31.26305120617428
 31
0.0
  0
SPLINE
  5
4AC
330
1F
100
AcDbEntity
  8
0
  6
CONTINUOUS
 62
     7
100
AcDbSpline
210
0.0
220
0.0
230
1.0
 70
     8
 71
     3
 72
    15
 73
    11
 74
     9
 42
0.0000000001
 43
0.0000000001
 44
0.00000001
 40
0.0
 40
0.0
 40
0.0
 40
0.0
 40
0.6324766115174247
 40
1.342617532341976
 40
2.149943958003409
 40
3.019454982019063
 40
3.888966006034606
 40
4.696292431695936
 40
5.406433352520565
 40
6.03890996403802
 40
6.03890996403802
 40
6.03890996403802
 40
6.03890996403802
 10
59.85638758151572
 20
31.26305120617428
 30
0.0
 10
59.89397351355671
 20
31.05077195794315
 30
0.0
 10
59.97376070316768
 20
30.60014685143732
 30
0.0
 10
60.52379596991833
 20
30.08055912983381
 30
0.0
 10
61.25273416077846
 20
29.74792712427028
 30
0.0
 10
62.10638758151566
 20
29.63272113283503
 30
0.0
 10
62.96004100225289
 20
29.74792712427028
 30
0.0
 10
63.68897919311291
 20
30.08055912983388
 30
0.0
 10
64.23901445986363
 20
30.60014685143729
 30
0.0
 10
64.3188016494747
 20
31.05077195794315
 30
0.0
 10
64.35638758151572
 20
31.26305120617428
 30
0.0
 11
59.85638758151572
 21
31.26305120617428
 31
0.0
 11
60.02766495372991
 21
30.65420744470179
 31
0.0
 11
60.5153973238456
 21
30.13805120617428
 31
0.0
 11
61.2453524766748
 21
29.79317233986123
 31
0.0
 11
62.10638758151572
 21
29.67206094850462
 31
0.0
 11
62.96742268635653
 21
29.79317233986123
 31
0.0
 11
63.69737783918561
 21
30.13805120617428
 31
0.0
 11
64.18511020930141
 21
30.65420744470179
 31
0.0
 11
64.35638758151572
 21
31.26305120617428
 31
0.0
  0
SPLINE
  5
4AD
330
1F
100
AcDbEntity
  8
0
  6
CONTINUOUS
 62
     7
100
AcDbSpline
210
0.0
220
0.0
230
1.0
 70
     8
 71
     3
 72
    11
 73
     7
 74
     5
 42
0.0000000001
 43
0.0000000001
 44
0.00000001
 40
0.0
 40
0.0
 40
0.0
 40
0.0
 40
0.389795936278399
 40
0.7623254042892863
 40
1.404676916913196
 40
2.009689518635593
 40
2.009689518635593
 40
2.009689518635593
 40
2.009689518635593
 10
64.35638758151572
 20
36.9722541512524
 30
0.0
 10
64.4614521387353
 20
37.04926032125619
 30
0.0
 10
64.66692729536103
 20
37.19986158262743
 30
0.0
 10
64.98900452724028
 20
37.5404611495556
 30
0.0
 10
65.28737163464824
 20
38.01002435649563
 30
0.0
 10
65.33384599091352
 20
38.42788810355937
 30
0.0
 10
65.35638758151572
 20
38.63056575787766
 30
0.0
 11
64.35638758151572
 21
36.9722541512524
 31
0.0
 11
64.66355930083232
 21
37.2122258303965
 31
0.0
 11
64.92097014381544
 21
37.48151723844955
 31
0.0
 11
65.2456456800109
 21
38.03577463530269
 31
0.0
 11
65.35638758151572
 21
38.63056575787766
 31
0.0
  0
SPLINE
  5
4AE
330
1F
100
AcDbEntity
  8
0
  6
CONTINUOUS
 62
     7
100
AcDbSpline
210
0.0
220
0.0
230
1.0
 70
     8
 71
     3
 72
     9
 73
     5
 74
     3
 42
0.0000000001
 43
0.0000000001
 44
0.00000001
 40
0.0
 40
0.0
 40
0.0
 40
0.0
 40
0.0772898688017933
 40
0.1490522177496604
 40
0.1490522177496604
 40
0.1490522177496604
 40
0.1490522177496604
 10
55.6892302939907
 20
38.41843372352173
 30
0.0
 10
55.66314309935903
 20
38.42009913281801
 30
0.0
 10
55.61283438134726
 20
38.42331084675827
 30
0.0
 10
55.56894150451909
 20
38.4479785987829
 30
0.0
 10
55.54780893775273
 20
38.459855079759
 30
0.0
 11
55.6892302939907
 21
38.41843372352173
 31
0.0
 11
55.61269384022665
 21
38.42919918053121
 31
0.0
 11
55.54780893775273
 21
38.459855079759
 31
0.0
  0
SPLINE
  5
4AF
330
1F
100
AcDbEntity
  8
0
  6
CONTINUOUS
 62
     7
100
AcDbSpline
210
0.0
220
0.0
230
1.0
 70
     8
 71
     3
 72
    11
 73
     7
 74
     5
 42
0.0000000001
 43
0.0000000001
 44
0.00000001
 40
0.0
 40
0.0
 40
0.0
 40
0.0
 40
0.8115436224146187
 40
1.565048286365284
 40
2.2278464791349
 40
2.818157983217858
 40
2.818157983217858
 40
2.818157983217858
 40
2.818157983217858
 10
56.80638758151554
 20
38.41843372352173
 30
0.0
 10
57.07845442409779
 20
38.39736132481294
 30
0.0
 10
57.60313077420365
 20
38.35672355676461
 30
0.0
 10
58.28347308567309
 20
38.03512483039387
 30
0.0
 10
58.79683933464035
 20
37.55264219591943
 30
0.0
 10
58.87130737827736
 20
37.13177191094783
 30
0.0
 10
58.90638758151567
 20
36.93350948302998
 30
0.0
 11
56.80638758151554
 21
38.41843372352173
 31
0.0
 11
57.61002034603374
 21
38.3053964249222
 31
0.0
 11
58.29131182200763
 21
37.98350948302999
 31
0.0
 11
58.74652870078231
 21
37.50176366040429
 31
0.0
 11
58.90638758151567
 21
36.93350948302998
 31
0.0
  0
SPLINE
  5
4B0
330
1F
100
AcDbEntity
  8
0
  6
CONTINUOUS
 62
     7
100
AcDbSpline
210
0.0
220
0.0
230
1.0
 70
     8
 71
     3
 72
    21
 73
    17
 74
    15
 42
0.0000000001
 43
0.0000000001
 44
0.00000001
 40
0.0
 40
0.0
 40
0.0
 40
0.0
 40
0.6234706017103383
 40
1.199498680941024
 40
1.923946181365899
 40
2.689593302162416
 40
3.550796580757308
 40
4.509149534754182
 40
5.52592076728441
 40
6.542691999814707
 40
7.501044953811673
 40
8.36224823240657
 40
9.12789535320304
 40
9.852342853627915
 40
10.42837093285855
 40
11.05184153456895
 40
11.05184153456895
 40
11.05184153456895
 40
11.05184153456895
 10
64.35638758151572
 20
37.06935601505586
 30
0.0
 10
64.50709930102663
 20
37.21464135248844
 30
0.0
 10
64.79705444608038
 20
37.49415664981341
 30
0.0
 10
65.06818495087852
 20
38.09332102197852
 30
0.0
 10
65.07026868226885
 20
38.81053555425942
 30
0.0
 10
64.68102676849699
 20
39.52275516113789
 30
0.0
 10
63.99705999464124
 20
40.07341500894422
 30
0.0
 10
63.10640868432196
 20
40.42463759648214
 30
0.0
 10
62.10638758151566
 20
40.54545410509283
 30
0.0
 10
61.10636647870938
 20
40.42463759648213
 30
0.0
 10
60.21571516839001
 20
40.07341500894425
 30
0.0
 10
59.5317483945342
 20
39.52275516113794
 30
0.0
 10
59.14250648076245
 20
38.81053555425936
 30
0.0
 10
59.14459021215303
 20
38.09332102197855
 30
0.0
 10
59.41572071695091
 20
37.49415664981334
 30
0.0
 10
59.70567586200476
 20
37.21464135248841
 30
0.0
 10
59.85638758151572
 20
37.06935601505586
 30
0.0
 11
64.35638758151572
 21
37.06935601505586
 31
0.0
 11
64.77585500324227
 21
37.53061805913399
 31
0.0
 11
65.01157045290145
 21
38.05620970181313
 31
0.0
 11
65.01156609778053
 21
38.78065720222492
 31
0.0
 11
64.66116252267966
 21
39.46141622577181
 31
0.0
 11
64.00260818748734
 21
40.01637322830624
 31
0.0
 11
63.11534700432617
 21
40.37859964546817
 31
0.0
 11
62.1063875815157
 21
40.50439560097947
 31
0.0
 11
61.09742815870516
 21
40.37859964546817
 31
0.0
 11
60.21016697554388
 21
40.01637322830624
 31
0.0
 11
59.55161264035156
 21
39.46141622577181
 31
0.0
 11
59.2012090652508
 21
38.78065720222491
 31
0.0
 11
59.20120471013
 21
38.05620970181312
 31
0.0
 11
59.43692015978907
 21
37.53061805913398
 31
0.0
 11
59.85638758151572
 21
37.06935601505586
 31
0.0
  0
SPLINE
  5
4B1
330
1F
100
AcDbEntity
  8
0
  6
CONTINUOUS
 62
     7
100
AcDbSpline
210
0.0
220
0.0
230
1.0
 70
     8
 71
     3
 72
    15
 73
    11
 74
     9
 42
0.0000000001
 43
0.0000000001
 44
0.00000001
 40
0.0
 40
0.0
 40
0.0
 40
0.0
 40
0.0202203883250528
 40
0.0414092405360271
 40
0.0606363358477022
 40
0.0852837620857513
 40
0.1106414636520869
 40
0.1321387930245286
 40
0.1584074166525129
 40
0.1819270100559878
 40
0.1819270100559878
 40
0.1819270100559878
 40
0.1819270100559878
 10
70.00953818214975
 20
36.08498134560603
 30
0.0
 10
70.01628480540337
 20
36.08531481158709
 30
0.0
 10
70.03010118422978
 20
36.08599771504069
 30
0.0
 10
70.0497845986648
 20
36.0911615573492
 30
0.0
 10
70.06987737645869
 20
36.09943411843628
 30
0.0
 10
70.08975262949696
 20
36.11137309542868
 30
0.0
 10
70.108172947512
 20
36.1266330103033
 30
0.0
 10
70.12481384155024
 20
36.14449668056407
 30
0.0
 10
70.13904528012083
 20
36.16362694450363
 30
0.0
 10
70.14713704650676
 20
36.178130140689
 30
0.0
 10
70.15095953838659
 20
36.18498134560593
 30
0.0
 11
70.00953818214975
 21
36.08498134560603
 31
0.0
 11
70.02968879028217
 21
36.08665976626544
 31
0.0
 11
70.05024594449765
 21
36.09179502366692
 31
0.0
 11
70.06802031929708
 21
36.09912665340482
 31
0.0
 11
70.08919078696658
 21
36.111748337873
 31
0.0
 11
70.1087551137178
 21
36.12788060824945
 31
0.0
 11
70.1234577860987
 21
36.14356393044238
 31
0.0
 11
70.13907968411361
 21
36.16468256888619
 31
0.0
 11
70.15095953838659
 21
36.18498134560593
 31
0.0
  0
SPLINE
  5
4B2
330
1F
100
AcDbEntity
  8
0
  6
CONTINUOUS
 62
     7
100
AcDbSpline
210
0.0
220
0.0
230
1.0
 70
     8
 71
     3
 72
    15
 73
    11
 74
     9
 42
0.0000000001
 43
0.0000000001
 44
0.00000001
 40
0.0
 40
0.0
 40
0.0
 40
0.0
 40
0.0138347642808702
 40
0.0319681278660044
 40
0.0460296168783645
 40
0.07341032371237
 40
0.0963917882074165
 40
0.1216953366945456
 40
0.1506641720869128
 40
0.1734195775667878
 40
0.1734195775667878
 40
0.1734195775667878
 40
0.1734195775667878
 10
70.15095953838659
 20
43.96761156080413
 30
0.0
 10
70.14688313873027
 20
43.96977107397451
 30
0.0
 10
70.13746376137044
 20
43.97476108260479
 30
0.0
 10
70.12451616629902
 20
43.98301791910995
 30
0.0
 10
70.10796245453557
 20
43.9939832656807
 30
0.0
 10
70.09033501288427
 20
44.00625448479096
 30
0.0
 10
70.06984011002464
 20
44.02095521608405
 30
0.0
 10
70.0491387599794
 20
44.0362720857592
 30
0.0
 10
70.02874477006199
 20
44.05187854343468
 30
0.0
 10
70.01540627789448
 20
44.06280472823707
 30
0.0
 10
70.00953818214975
 20
44.06761156080404
 30
0.0
 11
70.15095953838659
 21
43.96761156080413
 31
0.0
 11
70.13881033284576
 21
43.97422952933186
 31
0.0
 11
70.12340580251066
 21
43.98379610238942
 31
0.0
 11
70.1116835880141
 21
43.99156238596275
 31
0.0
 11
70.08917233519355
 21
44.00714913043294
 31
0.0
 11
70.07050074745334
 21
44.02054761995962
 31
0.0
 11
70.05015872634863
 21
44.03559659811151
 31
0.0
 11
70.02721138930028
 21
44.05327746761444
 31
0.0
 11
70.00953818214975
 21
44.06761156080404
 31
0.0
  0
SPLINE
  5
4B3
330
1F
100
AcDbEntity
  8
0
  6
CONTINUOUS
 62
     7
100
AcDbSpline
210
0.0
220
0.0
230
1.0
 70
     8
 71
     3
 72
     9
 73
     5
 74
     3
 42
0.0000000001
 43
0.0000000001
 44
0.00000001
 40
0.0
 40
0.0
 40
0.0
 40
0.0
 40
0.106741292742986
 40
0.1923359263941463
 40
0.1923359263941463
 40
0.1923359263941463
 40
0.1923359263941463
 10
70.15095953838659
 20
36.18498134560593
 30
0.0
 10
70.16692865814525
 20
36.21715263500031
 30
0.0
 10
70.19570323416501
 20
36.27512171697369
 30
0.0
 10
70.20309710925835
 20
36.33927439832265
 30
0.0
 10
70.20638758151563
 20
36.36782405808071
 30
0.0
 11
70.15095953838659
 21
36.18498134560593
 31
0.0
 11
70.19228174226603
 21
36.28339973333398
 31
0.0
 11
70.20638758151563
 21
36.36782405808071
 31
0.0
  0
SPLINE
  5
4B4
330
1F
100
AcDbEntity
  8
0
  6
CONTINUOUS
 62
     7
100
AcDbSpline
210
0.0
220
0.0
230
1.0
 70
     8
 71
     3
 72
     9
 73
     5
 74
     3
 42
0.0000000001
 43
0.0000000001
 44
0.00000001
 40
0.0
 40
0.0
 40
0.0
 40
0.0
 40
0.0660006428929346
 40
0.1234977929159789
 40
0.1234977929159789
 40
0.1234977929159789
 40
0.1234977929159789
 10
70.20638758151563
 20
43.86315593865811
 30
0.0
 10
70.20465417416
 20
43.88630302532786
 30
0.0
 10
70.20141069086556
 20
43.92961493852826
 30
0.0
 10
70.16698649160315
 20
43.95554107167393
 30
0.0
 10
70.15095953838659
 20
43.96761156080413
 30
0.0
 11
70.20638758151563
 21
43.86315593865811
 31
0.0
 11
70.19228174226603
 21
43.92763159422938
 31
0.0
 11
70.15095953838659
 21
43.96761156080413
 31
0.0
  0
SPLINE
  5
4B5
330
1F
100
AcDbEntity
  8
0
  6
CONTINUOUS
 62
     7
100
AcDbSpline
210
0.0
220
0.0
230
1.0
 70
     8
 71
     3
 72
    11
 73
     7
 74
     5
 42
0.0000000001
 43
0.0000000001
 44
0.00000001
 40
0.0
 40
0.0
 40
0.0
 40
0.0
 40
0.1003388226148566
 40
0.2006776452298636
 40
0.2886401205795543
 40
0.3552872562888528
 40
0.3552872562888528
 40
0.3552872562888528
 40
0.3552872562888528
 10
69.30638758151554
 20
40.04477932025077
 30
0.0
 10
69.33274340296339
 20
40.06556222169692
 30
0.0
 10
69.38545504585916
 20
40.10712802458928
 30
0.0
 10
69.44670995121444
 20
40.18150478182086
 30
0.0
 10
69.4935311523135
 20
40.25438461394883
 30
0.0
 10
69.50251495754239
 20
40.30556139837412
 30
0.0
 10
69.50638758151558
 20
40.32762203272534
 30
0.0
 11
69.30638758151554
 21
40.04477932025077
 31
0.0
 11
69.3829240352792
 21
40.10966422272444
 31
0.0
 11
69.44780893775317
 21
40.18620067648806
 31
0.0
 11
69.4911629262079
 21
40.26273713025168
 31
0.0
 11
69.50638758151558
 21
40.32762203272534
 31
0.0
  0
SPLINE
  5
4B6
330
1F
100
AcDbEntity
  8
0
  6
CONTINUOUS
 62
     7
100
AcDbSpline
210
0.0
220
0.0
230
1.0
 70
     8
 71
     3
 72
     9
 73
     5
 74
     3
 42
0.0000000001
 43
0.0000000001
 44
0.00000001
 40
0.0
 40
0.0
 40
0.0
 40
0.0
 40
0.0824305949168598
 40
0.189366212316999
 40
0.189366212316999
 40
0.189366212316999
 40
0.189366212316999
 10
69.50638758151558
 20
43.05604915747153
 30
0.0
 10
69.49679493809738
 20
43.08426198964951
 30
0.0
 10
69.4747579437988
 20
43.14907478365721
 30
0.0
 10
69.40459016285811
 20
43.15353209920523
 30
0.0
 10
69.36496622527875
 20
43.15604915747156
 30
0.0
 11
69.50638758151558
 21
43.05604915747153
 31
0.0
 11
69.46848965115959
 21
43.12925127392371
 31
0.0
 11
69.36496622527875
 21
43.15604915747156
 31
0.0
  0
SPLINE
  5
4B7
330
1F
100
AcDbEntity
  8
0
  6
CONTINUOUS
 62
     7
100
AcDbSpline
210
0.0
220
0.0
230
1.0
 70
     8
 71
     3
 72
     9
 73
     5
 74
     3
 42
0.0000000001
 43
0.0000000001
 44
0.00000001
 40
0.0
 40
0.0
 40
0.0
 40
0.0
 40
0.1139828991722838
 40
0.2211442330166364
 40
0.2211442330166364
 40
0.2211442330166364
 40
0.2211442330166364
 10
70.00953818214975
 20
44.06761156080404
 30
0.0
 10
69.97813103572827
 20
44.09028836701827
 30
0.0
 10
69.91719637485318
 20
44.13428483450532
 30
0.0
 10
69.84255638062936
 20
44.14217517586788
 30
0.0
 10
69.80638758151554
 20
44.14599865113269
 30
0.0
 11
70.00953818214975
 21
44.06761156080404
 31
0.0
 11
69.91167576731732
 21
44.12604998195728
 31
0.0
 11
69.80638758151554
 21
44.14599865113269
 31
0.0
  0
SPLINE
  5
4B8
330
1F
100
AcDbEntity
  8
0
  6
CONTINUOUS
 62
     7
100
AcDbSpline
210
0.0
220
0.0
230
1.0
 70
     8
 71
     3
 72
    11
 73
     7
 74
     5
 42
0.0000000001
 43
0.0000000001
 44
0.00000001
 40
0.0
 40
0.0
 40
0.0
 40
0.0
 40
0.1545797376030899
 40
0.2981044354986309
 40
0.4243517103117329
 40
0.5367919968037259
 40
0.5367919968037259
 40
0.5367919968037259
 40
0.5367919968037259
 10
69.80638758151554
 20
44.42884123317629
 30
0.0
 10
69.8582098372456
 20
44.42482744294603
 30
0.0
 10
69.95814818964688
 20
44.41708691569868
 30
0.0
 10
70.08773720135544
 20
44.3558300154376
 30
0.0
 10
70.18552124877769
 20
44.26392856125184
 30
0.0
 10
70.19970563804173
 20
44.18376279268585
 30
0.0
 10
70.20638758151563
 20
44.14599852070148
 30
0.0
 11
69.80638758151554
 21
44.42884123317629
 31
0.0
 11
69.95946048904311
 21
44.40731031915725
 31
0.0
 11
70.08923029399068
 21
44.34599852070153
 31
0.0
 11
70.17593827089992
 21
44.25423741162997
 31
0.0
 11
70.20638758151563
 21
44.14599852070148
 31
0.0
  0
SPLINE
  5
4B9
330
1F
100
AcDbEntity
  8
0
  6
CONTINUOUS
 62
     7
100
AcDbSpline
210
0.0
220
0.0
230
1.0
 70
     8
 71
     3
 72
    15
 73
    11
 74
     9
 42
0.0000000001
 43
0.0000000001
 44
0.00000001
 40
0.0
 40
0.0
 40
0.0
 40
0.0
 40
0.023555865280324
 40
0.0498688959544242
 40
0.0756060922567946
 40
0.0966667605071572
 40
0.1213573411950534
 40
0.1406104541247564
 40
0.1643340460773262
 40
0.1819259512277238
 40
0.1819259512277238
 40
0.1819259512277238
 40
0.1819259512277238
 10
54.06181562464462
 20
36.18498134560593
 30
0.0
 10
54.06564463715182
 20
36.17811961869083
 30
0.0
 10
54.07375084017418
 20
36.16359301389305
 30
0.0
 10
54.08884462837754
 20
36.14330870622775
 30
0.0
 10
54.10569248568827
 20
36.12560563924737
 30
0.0
 10
54.1242838780396
 20
36.11061196944719
 30
0.0
 10
54.14295210117477
 20
36.09940552841967
 30
0.0
 10
54.16384989695459
 20
36.09081017314654
 30
0.0
 10
54.1835888321395
 20
36.08583971525616
 30
0.0
 10
54.19736932493639
 20
36.08523768618279
 30
0.0
 10
54.20323698088168
 20
36.08498134560603
 30
0.0
 11
54.06181562464462
 21
36.18498134560593
 31
0.0
 11
54.07371531903381
 21
36.16465215323267
 31
0.0
 11
54.08936936052055
 21
36.14350205705352
 31
0.0
 11
54.1071894005055
 21
36.12493193458646
 31
0.0
 11
54.12360282783766
 21
36.11173530053213
 31
0.0
 11
54.14481396765268
 21
36.09909756646098
 31
0.0
 11
54.16261643668258
 21
36.09176582356292
 31
0.0
 11
54.18569130917791
 21
36.08625591662575
 31
0.0
 11
54.20323698088168
 21
36.08498134560603
 31
0.0
  0
SPLINE
  5
4BA
330
1F
100
AcDbEntity
  8
0
  6
CONTINUOUS
 62
     7
100
AcDbSpline
210
0.0
220
0.0
230
1.0
 70
     8
 71
     3
 72
     9
 73
     5
 74
     3
 42
0.0000000001
 43
0.0000000001
 44
0.00000001
 40
0.0
 40
0.0
 40
0.0
 40
0.0
 40
0.0824305949169224
 40
0.1893662123169205
 40
0.1893662123169205
 40
0.1893662123169205
 40
0.1893662123169205
 10
54.70638758151563
 20
36.18498134560593
 30
0.0
 10
54.71598022493397
 20
36.156768513428
 30
0.0
 10
54.73801721923286
 20
36.09195571942048
 30
0.0
 10
54.80818500017342
 20
36.08749840387239
 30
0.0
 10
54.84780893775269
 20
36.08498134560603
 30
0.0
 11
54.70638758151563
 21
36.18498134560593
 31
0.0
 11
54.74428551187199
 21
36.11177922915386
 31
0.0
 11
54.84780893775269
 21
36.08498134560603
 31
0.0
  0
SPLINE
  5
4BB
330
1F
100
AcDbEntity
  8
0
  6
CONTINUOUS
 62
     7
100
AcDbSpline
210
0.0
220
0.0
230
1.0
 70
     8
 71
     3
 72
     9
 73
     5
 74
     3
 42
0.0000000001
 43
0.0000000001
 44
0.00000001
 40
0.0
 40
0.0
 40
0.0
 40
0.0
 40
0.0855946336511743
 40
0.1923359263941273
 40
0.1923359263941273
 40
0.1923359263941273
 40
0.1923359263941273
 10
54.00638758151558
 20
36.36782405808071
 30
0.0
 10
54.0096780537729
 20
36.33927439832265
 30
0.0
 10
54.01707192886634
 20
36.27512171697372
 30
0.0
 10
54.04584650488601
 20
36.21715263500032
 30
0.0
 10
54.06181562464462
 20
36.18498134560593
 30
0.0
 11
54.00638758151558
 21
36.36782405808071
 31
0.0
 11
54.02049342076526
 21
36.28339973333398
 31
0.0
 11
54.06181562464462
 21
36.18498134560593
 31
0.0
  0
SPLINE
  5
4BC
330
1F
100
AcDbEntity
  8
0
  6
CONTINUOUS
 62
     7
100
AcDbSpline
210
0.0
220
0.0
230
1.0
 70
     8
 71
     3
 72
     9
 73
     5
 74
     3
 42
0.0000000001
 43
0.0000000001
 44
0.00000001
 40
0.0
 40
0.0
 40
0.0
 40
0.0
 40
0.057497150022983
 40
0.1234977929159358
 40
0.1234977929159358
 40
0.1234977929159358
 40
0.1234977929159358
 10
54.06181562464462
 20
43.96761156080413
 30
0.0
 10
54.0457886714281
 20
43.95554107167393
 30
0.0
 10
54.01136447216575
 20
43.9296149385282
 30
0.0
 10
54.00812098887126
 20
43.88630302532786
 30
0.0
 10
54.00638758151558
 20
43.86315593865811
 30
0.0
 11
54.06181562464462
 21
43.96761156080413
 31
0.0
 11
54.02049342076526
 21
43.92763159422938
 31
0.0
 11
54.00638758151558
 21
43.86315593865811
 31
0.0
  0
SPLINE
  5
4BD
330
1F
100
AcDbEntity
  8
0
  6
CONTINUOUS
 62
     7
100
AcDbSpline
210
0.0
220
0.0
230
1.0
 70
     8
 71
     3
 72
    15
 73
    11
 74
     9
 42
0.0000000001
 43
0.0000000001
 44
0.00000001
 40
0.0
 40
0.0
 40
0.0
 40
0.0
 40
0.0227918525807321
 40
0.0518333913173743
 40
0.0770842456754126
 40
0.1000318490878332
 40
0.1274428427024657
 40
0.1415133894771738
 40
0.1596081133365249
 40
0.1734195859930868
 40
0.1734195859930868
 40
0.1734195859930868
 40
0.1734195859930868
 10
54.20323698088168
 20
44.06761156080404
 30
0.0
 10
54.1973594170677
 20
44.06279711220225
 30
0.0
 10
54.18399262013517
 20
44.05184805935672
 30
0.0
 10
54.16358260053566
 20
44.0362315484451
 30
0.0
 10
54.14288421912211
 20
44.02091844306207
 30
0.0
 10
54.12240422033452
 20
44.006229116706
 30
0.0
 10
54.1047749907657
 20
43.99395725216819
 30
0.0
 10
54.088220312215
 20
43.98299292641538
 30
0.0
 10
54.07528661118766
 20
43.97474715841941
 30
0.0
 10
54.06588525823845
 20
43.96976725056555
 30
0.0
 10
54.06181562464462
 20
43.96761156080413
 30
0.0
 11
54.20323698088168
 21
44.06761156080404
 31
0.0
 11
54.18553518389214
 21
44.05325485758209
 31
0.0
 11
54.16252921853356
 21
44.03553096043413
 31
0.0
 11
54.14222876557645
 21
44.020514394397
 31
0.0
 11
54.12358437606554
 21
44.00713608201693
 31
0.0
 11
54.10104773861923
 21
43.99153279571067
 31
0.0
 11
54.08931737693365
 21
43.98376240953849
 31
0.0
 11
54.07394473173562
 21
43.97421773504631
 31
0.0
 11
54.06181562464462
 21
43.96761156080413
 31
0.0
  0
SPLINE
  5
4BE
330
1F
100
AcDbEntity
  8
0
  6
CONTINUOUS
 62
     7
100
AcDbSpline
210
0.0
220
0.0
230
1.0
 70
     8
 71
     3
 72
     9
 73
     5
 74
     3
 42
0.0000000001
 43
0.0000000001
 44
0.00000001
 40
0.0
 40
0.0
 40
0.0
 40
0.0
 40
0.0459495206089676
 40
0.0918990412178722
 40
0.0918990412178722
 40
0.0918990412178722
 40
0.0918990412178722
 10
54.76496622527861
 20
38.971987114115
 30
0.0
 10
54.74817078469808
 20
38.96925634010791
 30
0.0
 10
54.71457990353704
 20
38.96379479209376
 30
0.0
 10
54.70911835552275
 20
38.93020391093273
 30
0.0
 10
54.70638758151563
 20
38.91340847035224
 30
0.0
 11
54.76496622527861
 21
38.971987114115
 31
0.0
 11
54.72161223682372
 21
38.95676245880703
 31
0.0
 11
54.70638758151563
 21
38.91340847035224
 31
0.0
  0
SPLINE
  5
4BF
330
1F
100
AcDbEntity
  8
0
  6
CONTINUOUS
 62
     7
100
AcDbSpline
210
0.0
220
0.0
230
1.0
 70
     8
 71
     3
 72
     9
 73
     5
 74
     3
 42
0.0000000001
 43
0.0000000001
 44
0.00000001
 40
0.0
 40
0.0
 40
0.0
 40
0.0
 40
0.107161333843822
 40
0.2211442330163803
 40
0.2211442330163803
 40
0.2211442330163803
 40
0.2211442330163803
 10
54.40638758151567
 20
44.14599865113269
 30
0.0
 10
54.37021878240205
 20
44.14217517586783
 30
0.0
 10
54.29557878817835
 20
44.13428483450517
 30
0.0
 10
54.23464412730327
 20
44.09028836701827
 30
0.0
 10
54.20323698088168
 20
44.06761156080404
 30
0.0
 11
54.40638758151567
 21
44.14599865113269
 31
0.0
 11
54.30109939571443
 21
44.12604998195728
 31
0.0
 11
54.20323698088168
 21
44.06761156080404
 31
0.0
  0
SPLINE
  5
4C0
330
1F
100
AcDbEntity
  8
0
  6
CONTINUOUS
 62
     7
100
AcDbSpline
210
0.0
220
0.0
230
1.0
 70
     8
 71
     3
 72
    11
 73
     7
 74
     5
 42
0.0000000001
 43
0.0000000001
 44
0.00000001
 40
0.0
 40
0.0
 40
0.0
 40
0.0
 40
0.1124402864919366
 40
0.2386875613053845
 40
0.3822122592007649
 40
0.5367919968033482
 40
0.5367919968033482
 40
0.5367919968033482
 40
0.5367919968033482
 10
54.00638758151558
 20
44.1459985207016
 30
0.0
 10
54.01306952498954
 20
44.18376279268595
 30
0.0
 10
54.02725391425372
 20
44.26392856125204
 30
0.0
 10
54.12503796167641
 20
44.35583001543739
 30
0.0
 10
54.25462697338472
 20
44.41708691569866
 30
0.0
 10
54.35456532578579
 20
44.42482744294603
 30
0.0
 10
54.40638758151567
 20
44.42884123317629
 30
0.0
 11
54.00638758151558
 21
44.1459985207016
 31
0.0
 11
54.03683689213146
 21
44.25423741162999
 31
0.0
 11
54.12354486904122
 21
44.34599852070153
 31
0.0
 11
54.25331467398861
 21
44.40731031915725
 31
0.0
 11
54.40638758151567
 21
44.42884123317629
 31
0.0
  0
SPLINE
  5
4C1
330
1F
100
AcDbEntity
  8
0
  6
CONTINUOUS
 62
     7
100
AcDbSpline
210
0.0
220
0.0
230
1.0
 70
     8
 71
     3
 72
    17
 73
    13
 74
    11
 42
0.0000000001
 43
0.0000000001
 44
0.00000001
 40
0.0
 40
0.0
 40
0.0
 40
0.0
 40
0.7277476031506301
 40
1.517376889419608
 40
2.397972711644947
 40
3.360977847655956
 40
4.371561656226979
 40
5.382145464797664
 40
6.345150600808205
 40
7.225746423033486
 40
8.015375709302722
 40
8.743123312453429
 40
8.743123312453429
 40
8.743123312453429
 40
8.743123312453429
 10
65.35638758151572
 20
38.63056575787766
 30
0.0
 10
65.32294941707622
 20
38.87460711536556
 30
0.0
 10
65.25322978114004
 20
39.38344110439085
 30
0.0
 10
64.7393889875469
 20
40.03660688972872
 30
0.0
 10
64.01157129542031
 20
40.53888472751685
 30
0.0
 10
63.10284065991044
 20
40.85665455056618
 30
0.0
 10
62.10638758151578
 20
40.96553212867398
 30
0.0
 10
61.10993450312125
 20
40.8566545505662
 30
0.0
 10
60.20120386761174
 20
40.53888472751677
 30
0.0
 10
59.47338617548532
 20
40.03660688972857
 30
0.0
 10
58.9595453818918
 20
39.38344110439095
 30
0.0
 10
58.88982574595535
 20
38.87460711536558
 30
0.0
 10
58.85638758151572
 20
38.63056575787766
 30
0.0
 11
65.35638758151572
 21
38.63056575787766
 31
0.0
 11
65.19731879780903
 21
39.34071623203195
 31
0.0
 11
64.73569281323466
 21
39.9813533056543
 31
0.0
 11
64.01668813007326
 21
40.48976383634056
 31
0.0
 11
63.11069281323455
 21
40.81618592176051
 31
0.0
 11
62.10638758151566
 21
40.92866096649482
 31
0.0
 11
61.10208234979712
 21
40.81618592176051
 31
0.0
 11
60.1960870329589
 21
40.48976383634056
 31
0.0
 11
59.47708234979757
 21
39.9813533056543
 31
0.0
 11
59.01545636522276
 21
39.34071623203195
 31
0.0
 11
58.85638758151572
 21
38.63056575787766
 31
0.0
  0
SPLINE
  5
4C2
330
1F
100
AcDbEntity
  8
0
  6
CONTINUOUS
 62
     7
100
AcDbSpline
210
0.0
220
0.0
230
1.0
 70
     8
 71
     3
 72
     9
 73
     5
 74
     3
 42
0.0000000001
 43
0.0000000001
 44
0.00000001
 40
0.0
 40
0.0
 40
0.0
 40
0.0
 40
0.0879624753496163
 40
0.1546096110588791
 40
0.1546096110588791
 40
0.1546096110588791
 40
0.1546096110588791
 10
54.90638758151567
 20
38.91340847035224
 30
0.0
 10
54.88173832910901
 20
38.93006537453164
 30
0.0
 10
54.83841290753188
 20
38.95934283024655
 30
0.0
 10
54.78708989414309
 20
38.9681783927303
 30
0.0
 10
54.76496622527861
 20
38.971987114115
 30
0.0
 11
54.90638758151567
 21
38.91340847035224
 31
0.0
 11
54.82985112775216
 21
38.95676245880703
 31
0.0
 11
54.76496622527861
 21
38.971987114115
 31
0.0
  0
SPLINE
  5
4C3
330
1F
100
AcDbEntity
  8
0
  6
CONTINUOUS
 62
     7
100
AcDbSpline
210
0.0
220
0.0
230
1.0
 70
     8
 71
     3
 72
    11
 73
     7
 74
     5
 42
0.0000000001
 43
0.0000000001
 44
0.00000001
 40
0.0
 40
0.0
 40
0.0
 40
0.0
 40
0.6324766115175033
 40
1.342617532342135
 40
2.149943958003486
 40
3.019454982019029
 40
3.019454982019029
 40
3.019454982019029
 40
3.019454982019029
 10
64.35638758151572
 20
38.41843372352162
 30
0.0
 10
64.3188016494747
 20
38.63085775343364
 30
0.0
 10
64.23901445986363
 20
39.08179020161754
 30
0.0
 10
63.68897919311291
 20
39.5987358814115
 30
0.0
 10
62.96004100225286
 20
39.94330594538022
 30
0.0
 10
62.39788776999666
 20
39.98684641114627
 30
0.0
 10
62.10638758151572
 20
40.00942398119139
 30
0.0
 11
64.35638758151572
 21
38.41843372352162
 31
0.0
 11
64.18511020930141
 21
39.02727748499416
 31
0.0
 11
63.69737783918561
 21
39.54343372352167
 31
0.0
 11
62.96742268635653
 21
39.88831258983478
 31
0.0
 11
62.10638758151572
 21
40.00942398119139
 31
0.0
  0
SPLINE
  5
4C4
330
1F
100
AcDbEntity
  8
0
  6
CONTINUOUS
 62
     7
100
AcDbSpline
210
0.0
220
0.0
230
1.0
 70
     8
 71
     3
 72
    17
 73
    13
 74
    11
 42
0.0000000001
 43
0.0000000001
 44
0.00000001
 40
0.0
 40
0.0
 40
0.0
 40
0.0
 40
0.7277476031507134
 40
1.517376889419668
 40
2.397972711644979
 40
3.360977847655986
 40
4.371561656227009
 40
5.382145464797694
 40
6.345150600808234
 40
7.225746423033486
 40
8.015375709302699
 40
8.74312331245349
 40
8.74312331245349
 40
8.74312331245349
 40
8.74312331245349
 10
65.35638758151572
 20
38.98411914847088
 30
0.0
 10
65.32294941707623
 20
39.2281605059588
 30
0.0
 10
65.25322978114005
 20
39.73699449498411
 30
0.0
 10
64.73938898754693
 20
40.39016028032201
 30
0.0
 10
64.0115712954203
 20
40.89243811811008
 30
0.0
 10
63.10284065991043
 20
41.21020794115939
 30
0.0
 10
62.10638758151579
 20
41.31908551926721
 30
0.0
 10
61.10993450312125
 20
41.21020794115944
 30
0.0
 10
60.20120386761175
 20
40.89243811811
 30
0.0
 10
59.47338617548535
 20
40.39016028032185
 30
0.0
 10
58.95954538189174
 20
39.73699449498422
 30
0.0
 10
58.88982574595533
 20
39.22816050595883
 30
0.0
 10
58.85638758151572
 20
38.98411914847088
 30
0.0
 11
65.35638758151572
 21
38.98411914847088
 31
0.0
 11
65.19731879780903
 21
39.69426962262526
 31
0.0
 11
64.73569281323466
 21
40.33490669624757
 31
0.0
 11
64.01668813007326
 21
40.84331722693379
 31
0.0
 11
63.11069281323455
 21
41.16973931235373
 31
0.0
 11
62.10638758151566
 21
41.28221435708804
 31
0.0
 11
61.10208234979712
 21
41.16973931235373
 31
0.0
 11
60.1960870329589
 21
40.84331722693379
 31
0.0
 11
59.47708234979757
 21
40.33490669624757
 31
0.0
 11
59.01545636522276
 21
39.69426962262526
 31
0.0
 11
58.85638758151572
 21
38.98411914847088
 31
0.0
  0
SPLINE
  5
4C5
330
1F
100
AcDbEntity
  8
0
  6
CONTINUOUS
 62
     7
100
AcDbSpline
210
0.0
220
0.0
230
1.0
 70
     8
 71
     3
 72
    11
 73
     7
 74
     5
 42
0.0000000001
 43
0.0000000001
 44
0.00000001
 40
0.0
 40
0.0
 40
0.0
 40
0.0
 40
0.0795072890569438
 40
0.1687775931835519
 40
0.2702648803331638
 40
0.3795692610260765
 40
0.3795692610260765
 40
0.3795692610260765
 40
0.3795692610260765
 10
65.50638758151558
 20
43.15604915747156
 30
0.0
 10
65.4796842087089
 20
43.15132430992961
 30
0.0
 10
65.42299845013693
 20
43.14129443209391
 30
0.0
 10
65.35801430868166
 20
43.07215066906952
 30
0.0
 10
65.31469913911235
 20
42.98051740012342
 30
0.0
 10
65.30922575980568
 20
42.90985031343999
 30
0.0
 10
65.30638758151554
 20
42.87320644499698
 30
0.0
 11
65.50638758151558
 21
43.15604915747156
 31
0.0
 11
65.42985112775209
 21
43.13451824345258
 31
0.0
 11
65.36496622527864
 21
43.07320644499691
 31
0.0
 11
65.32161223682373
 21
42.98144533592537
 31
0.0
 11
65.30638758151554
 21
42.87320644499698
 31
0.0
  0
SPLINE
  5
4C6
330
1F
100
AcDbEntity
  8
0
  6
CONTINUOUS
 62
     7
100
AcDbSpline
210
0.0
220
0.0
230
1.0
 70
     8
 71
     3
 72
    15
 73
    11
 74
     9
 42
0.0000000001
 43
0.0000000001
 44
0.00000001
 40
0.0
 40
0.0
 40
0.0
 40
0.0
 40
0.3373208594759821
 40
0.7160626839157038
 40
1.146636777601486
 40
1.610375990409544
 40
2.074115203217764
 40
2.504689296904012
 40
2.883431121344007
 40
3.220751980820005
 40
3.220751980820005
 40
3.220751980820005
 40
3.220751980820005
 10
57.90638758151567
 20
37.28706295036056
 30
0.0
 10
57.88634175109372
 20
37.40027854941714
 30
0.0
 10
57.84378858330101
 20
37.64061193955352
 30
0.0
 10
57.55043644103421
 20
37.91772539107535
 30
0.0
 10
57.16166940590913
 20
38.09512912737613
 30
0.0
 10
56.70638758151615
 20
38.15657232280817
 30
0.0
 10
56.25110575712303
 20
38.09512912737605
 30
0.0
 10
55.8623387219976
 20
37.91772539107539
 30
0.0
 10
55.56898657973029
 20
37.64061193955365
 30
0.0
 10
55.52643341193755
 20
37.40027854941715
 30
0.0
 10
55.50638758151558
 20
37.28706295036056
 30
0.0
 11
57.90638758151567
 21
37.28706295036056
 31
0.0
 11
57.81503964966788
 21
37.61177962314584
 31
0.0
 11
57.55491571893958
 21
37.88706295036053
 31
0.0
 11
57.16560630409773
 21
38.07099834572756
 31
0.0
 11
56.7063875815162
 21
38.13559108778441
 31
0.0
 11
56.2471688589345
 21
38.07099834572755
 31
0.0
 11
55.85785944409213
 21
37.88706295036053
 31
0.0
 11
55.59773551336343
 21
37.61177962314584
 31
0.0
 11
55.50638758151558
 21
37.28706295036056
 31
0.0
  0
SPLINE
  5
4C7
330
1F
100
AcDbEntity
  8
0
  6
CONTINUOUS
 62
     7
100
AcDbSpline
210
0.0
220
0.0
230
1.0
 70
     8
 71
     3
 72
    15
 73
    11
 74
     9
 42
0.0000000001
 43
0.0000000001
 44
0.00000001
 40
0.0
 40
0.0
 40
0.0
 40
0.0
 40
0.3373208594759167
 40
0.7160626839155649
 40
1.146636777601417
 40
1.610375990409968
 40
2.074115203218139
 40
2.50468929690403
 40
2.88343112134402
 40
3.220751980819955
 40
3.220751980819955
 40
3.220751980819955
 40
3.220751980819955
 10
68.70638758151563
 20
41.3882822812426
 30
0.0
 10
68.68634175109365
 20
41.50149788029915
 30
0.0
 10
68.64378858330095
 20
41.74183127043548
 30
0.0
 10
68.35043644103425
 20
42.01894472195738
 30
0.0
 10
67.96166940590899
 20
42.19634845825813
 30
0.0
 10
67.50638758151581
 20
42.25779165369019
 30
0.0
 10
67.05110575712266
 20
42.19634845825811
 30
0.0
 10
66.66233872199749
 20
42.01894472195724
 30
0.0
 10
66.36898657973026
 20
41.74183127043565
 30
0.0
 10
66.3264334119375
 20
41.50149788029918
 30
0.0
 10
66.30638758151554
 20
41.3882822812426
 30
0.0
 11
68.70638758151563
 21
41.3882822812426
 31
0.0
 11
68.61503964966785
 21
41.71299895402782
 31
0.0
 11
68.35491571893965
 21
41.9882822812425
 31
0.0
 11
67.96560630409772
 21
42.17221767660953
 31
0.0
 11
67.5063875815157
 21
42.23681041866644
 31
0.0
 11
67.04716885893406
 21
42.17221767660953
 31
0.0
 11
66.65785944409208
 21
41.9882822812425
 31
0.0
 11
66.39773551336339
 21
41.71299895402782
 31
0.0
 11
66.30638758151554
 21
41.3882822812426
 31
0.0
  0
SPLINE
  5
4C8
330
1F
100
AcDbEntity
  8
0
  6
CONTINUOUS
 62
     7
100
AcDbSpline
210
0.0
220
0.0
230
1.0
 70
     8
 71
     3
 72
    15
 73
    11
 74
     9
 42
0.0000000001
 43
0.0000000001
 44
0.00000001
 40
0.0
 40
0.0
 40
0.0
 40
0.0
 40
0.6324766115174555
 40
1.342617532342085
 40
2.149943958003363
 40
3.019454982018511
 40
3.888966006034223
 40
4.696292431696016
 40
5.406433352520566
 40
6.038909964037991
 40
6.038909964037991
 40
6.038909964037991
 40
6.038909964037991
 10
-58.14361241848428
 20
31.26305120617428
 30
0.0
 10
-58.18119835052531
 20
31.05077195794315
 30
0.0
 10
-58.26098554013638
 20
30.6001468514373
 30
0.0
 10
-58.81102080688709
 20
30.08055912983388
 30
0.0
 10
-59.53995899774694
 20
29.74792712427033
 30
0.0
 10
-60.39361241848403
 20
29.632721132835
 30
0.0
 10
-61.24726583922121
 20
29.74792712427038
 30
0.0
 10
-61.97620403008161
 20
30.08055912983368
 30
0.0
 10
-62.52623929683229
 20
30.60014685143732
 30
0.0
 10
-62.60602648644331
 20
31.05077195794316
 30
0.0
 10
-62.64361241848428
 20
31.26305120617428
 30
0.0
 11
-58.14361241848428
 21
31.26305120617428
 31
0.0
 11
-58.31488979069859
 21
30.65420744470179
 31
0.0
 11
-58.80262216081439
 21
30.13805120617428
 31
0.0
 11
-59.53257731364342
 21
29.79317233986123
 31
0.0
 11
-60.39361241848383
 21
29.67206094850462
 31
0.0
 11
-61.25464752332481
 21
29.79317233986123
 31
0.0
 11
-61.9846026761544
 21
30.13805120617428
 31
0.0
 11
-62.47233504627009
 21
30.65420744470179
 31
0.0
 11
-62.64361241848428
 21
31.26305120617428
 31
0.0
  0
SPLINE
  5
4C9
330
1F
100
AcDbEntity
  8
0
  6
CONTINUOUS
 62
     7
100
AcDbSpline
210
0.0
220
0.0
230
1.0
 70
     8
 71
     3
 72
     9
 73
     5
 74
     3
 42
0.0000000001
 43
0.0000000001
 44
0.00000001
 40
0.0
 40
0.0
 40
0.0
 40
0.0
 40
0.0845278730820566
 40
0.1481780561203783
 40
0.1481780561203783
 40
0.1481780561203783
 40
0.1481780561203783
 10
15.51638712058957
 20
41.86609966381036
 30
0.0
 10
15.54436399737394
 20
41.87691725163891
 30
0.0
 10
15.59340769227684
 20
41.89588057199583
 30
0.0
 10
15.60948225831054
 20
41.9450002199188
 30
0.0
 10
15.61638712058971
 20
41.96609966381038
 30
0.0
 11
15.51638712058957
 21
41.86609966381036
 31
0.0
 11
15.58958923704176
 21
41.90836562499304
 31
0.0
 11
15.61638712058971
 21
41.96609966381038
 31
0.0
  0
SPLINE
  5
4CA
330
1F
100
AcDbEntity
  8
0
  6
CONTINUOUS
 62
     7
100
AcDbSpline
210
0.0
220
0.0
230
1.0
 70
     8
 71
     3
 72
    15
 73
    11
 74
     9
 42
0.0000000001
 43
0.0000000001
 44
0.00000001
 40
0.0
 40
0.0
 40
0.0
 40
0.0
 40
0.0152053329445068
 40
0.0329795907088046
 40
0.0477354473275321
 40
0.0678291392951122
 40
0.0898492245643542
 40
0.1074059698538845
 40
0.1258970452862715
 40
0.1519426652194974
 40
0.1519426652194974
 40
0.1519426652194974
 40
0.1519426652194974
 10
15.61638712058971
 20
44.06761156080427
 30
0.0
 10
15.61611137672302
 20
44.06253482013153
 30
0.0
 10
15.61551330235678
 20
44.0515236288519
 30
0.0
 10
15.61044073390407
 20
44.03622386529798
 30
0.0
 10
15.60188722265434
 20
44.02084487409862
 30
0.0
 10
15.58960969093627
 20
44.00622155414914
 30
0.0
 10
15.57420398734903
 20
43.99348696508068
 30
0.0
 10
15.55768279069682
 20
43.98334385454589
 30
0.0
 10
15.53896996321527
 20
43.97435184000384
 30
0.0
 10
15.52472042806965
 20
43.97009879502896
 30
0.0
 10
15.51638712058957
 20
43.96761156080413
 30
0.0
 11
15.61638712058971
 21
44.06761156080427
 31
0.0
 11
15.61494206049255
 21
44.05247505026621
 31
0.0
 11
15.6095734425287
 21
44.03553096043436
 31
0.0
 11
15.60242152496477
 21
44.02262416456121
 31
0.0
 11
15.58962012832262
 21
44.00713608201693
 31
0.0
 11
15.57272898773553
 21
43.99300903261049
 31
0.0
 11
15.55780453575471
 21
43.9837624095386
 31
0.0
 11
15.54110396251028
 21
43.97582448008858
 31
0.0
 11
15.51638712058957
 21
43.96761156080413
 31
0.0
  0
SPLINE
  5
4CB
330
1F
100
AcDbEntity
  8
0
  6
CONTINUOUS
 62
     7
100
AcDbSpline
210
0.0
220
0.0
230
1.0
 70
     8
 71
     3
 72
    15
 73
    11
 74
     9
 42
0.0000000001
 43
0.0000000001
 44
0.00000001
 40
0.0
 40
0.0
 40
0.0
 40
0.0
 40
0.0227654835970681
 40
0.0446086152394163
 40
0.0647716798453508
 40
0.0841363458939561
 40
0.1042623145785489
 40
0.1190390145137648
 40
0.1367708791453529
 40
0.1519471636245701
 40
0.1519471636245701
 40
0.1519471636245701
 40
0.1519471636245701
 10
7.733756905391601
 20
36.18498134560593
 30
0.0
 10
7.731612866281904
 20
36.17769251253942
 30
0.0
 10
7.727411654596901
 20
36.1634101561633
 30
0.0
 10
7.718209922293716
 20
36.14378827016331
 30
0.0
 10
7.707336115265799
 20
36.12640014757832
 30
0.0
 10
7.694445658837506
 20
36.11116534665122
 30
0.0
 10
7.680485548425541
 20
36.09945227285355
 30
0.0
 10
7.665097365165399
 20
36.09090798815222
 30
0.0
 10
7.6498111649051
 20
36.0858516092219
 30
0.0
 10
7.638823909228238
 20
36.08525601595609
 30
0.0
 10
7.633756905391692
 20
36.08498134560603
 30
0.0
 11
7.733756905391601
 21
36.18498134560593
 31
0.0
 11
7.726768458362869
 21
36.16331503877862
 31
0.0
 11
7.71757236380563
 21
36.14350205705352
 31
0.0
 11
7.706794496699416
 21
36.12646131895495
 31
0.0
 11
7.694219335762682
 21
36.11173530053213
 31
0.0
 11
7.678701980456993
 21
36.09891865901377
 31
0.0
 11
7.665771868083539
 21
36.09176582356304
 31
0.0
 11
7.648864767611968
 21
36.08642082805722
 31
0.0
 11
7.633756905391692
 21
36.08498134560603
 31
0.0
  0
ENDSEC
  0
SECTION
  2
OBJECTS
  0
DICTIONARY
  5
C
330
0
100
AcDbDictionary
  3
ACAD_GROUP
350
D
  3
ACAD_LAYOUT
350
1A
  3
ACAD_MLEADERSTYLE
350
4EE
  3
ACAD_MLINESTYLE
350
17
  3
ACAD_PLOTSETTINGS
350
19
  3
ACAD_VISUALSTYLE
350
2A
  3
ACDBHEADERROUNDTRIPXREC
350
4CC
  3
ACDBVARIABLEDICTIONARY
350
4EC
  0
DICTIONARY
  5
D
102
{ACAD_REACTORS
330
C
102
}
330
C
100
AcDbDictionary
  0
DICTIONARY
  5
1A
102
{ACAD_REACTORS
330
C
102
}
330
C
100
AcDbDictionary
  0
DICTIONARY
  5
4EE
102
{ACAD_REACTORS
330
C
102
}
330
C
100
AcDbDictionary
  0
DICTIONARY
  5
17
102
{ACAD_REACTORS
330
C
102
}
330
C
100
AcDbDictionary
  3
STANDARD
350
18
  0
DICTIONARY
  5
19
102
{ACAD_REACTORS
330
C
102
}
330
C
100
AcDbDictionary
  0
DICTIONARY
  5
2A
102
{ACAD_REACTORS
330
C
102
}
330
C
100
AcDbDictionary
  3
2DWIREFRAME
350
2F
  3
3D_HIDDEN
350
31
  3
3DWIREFRAME
350
30
  3
BASIC
350
32
  3
BRIGHTEN
350
36
  3
COLORCHANGE
350
3A
  3
CONCEPTUAL
350
34
  3
DIM
350
35
  3
FACEPATTERN
350
39
  3
FLAT
350
2B
  3
FLATWITHEDGES
350
2C
  3
GOURAUD
350
2D
  3
GOURAUDWITHEDGES
350
2E
  3
LINEPATTERN
350
38
  3
REALISTIC
350
33
  3
THICKEN
350
37
  0
DICTIONARY
  5
4CC
102
{ACAD_REACTORS
330
C
102
}
330
C
100
AcDbDictionary
  3
CEPSNTYPE
350
4D5
  3
DIMSTYLEDATA
350
4EB
  3
FINGERPRINTGUID
350
4D6
  3
HYPERLINKBASE
350
4CF
  3
INSUNITS
350
4D4
  3
LAYOUTDICT
350
4D1
  3
LWETCUNION
350
4D3
  3
PLOTSETDICT
350
4D2
  3
PSVPSCALE
350
4D8
  3
PUCSBASE
350
4DB
  3
PUCSORGBACK
350
4E1
  3
PUCSORGBOTTOM
350
4DD
  3
PUCSORGFRONT
350
4E0
  3
PUCSORGLEFT
350
4DE
  3
PUCSORGRIGHT
350
4DF
  3
PUCSORGTOP
350
4DC
  3
PUCSORTHOREF
350
4D9
  3
PUCSORTHOVIEW
350
4DA
  3
STYLESHEET
350
4D0
  3
TSTACKALIGN
350
4CD
  3
TSTACKSIZE
350
4CE
  3
UCSBASE
350
4E4
  3
UCSORGBACK
350
4EA
  3
UCSORGBOTTOM
350
4E6
  3
UCSORGFRONT
350
4E9
  3
UCSORGLEFT
350
4E7
  3
UCSORGRIGHT
350
4E8
  3
UCSORGTOP
350
4E5
  3
UCSORTHOREF
350
4E2
  3
UCSORTHOVIEW
350
4E3
  3
VERSIONGUID
350
4D7
  0
DICTIONARY
  5
4EC
102
{ACAD_REACTORS
330
C
102
}
330
C
100
AcDbDictionary
  0
MLINESTYLE
  5
18
102
{ACAD_REACTORS
330
17
102
}
330
17
100
AcDbMlineStyle
  2
Standard
 70
     0
  3

 62
   256
 51
90.0
 52
90.0
 71
     2
 49
0.5
 62
   256
  6
BYLAYER
 49
-0.5
 62
   256
  6
BYLAYER
  0
ACAD_PROXY_OBJECT
  5
2F
102
{ACAD_REACTORS
330
2A
102
}
330
2A
100
AcDbProxyObject
 90
      499
 91
      501
 93
      436
310
42CC9915DA5C99599C985B595049028333333333333E3BF0000000000000FB0107901411070040501600405405064090741402480A0340
1001
ACAD
1000
AcDbSavedByObjectVersion
1070
     0
  0
ACAD_PROXY_OBJECT
  5
31
102
{ACAD_REACTORS
330
2A
102
}
330
2A
100
AcDbProxyObject
 90
      499
 91
      501
 93
      500
310
424CD108121A5919195B90640502408333333333333E3BF0000000000000FB01079024090700405020000000000001110200405405064090740C02480A0340
1001
ACAD
1000
AcDbSavedByObjectVersion
1070
     0
  0
ACAD_PROXY_OBJECT
  5
30
102
{ACAD_REACTORS
330
2A
102
}
330
2A
100
AcDbProxyObject
 90
      499
 91
      501
 93
      436
310
42CCD915DA5C99599C985B595059028333333333333E3BF0000000000000FB0107901411070040501600405405064090741402480A0340
1001
ACAD
1000
AcDbSavedByObjectVersion
1070
     0
  0
ACAD_PROXY_OBJECT
  5
32
102
{ACAD_REACTORS
330
2A
102
}
330
2A
100
AcDbProxyObject
 90
      499
 91
      501
 93
      388
310
4150985CDA58D07406404333333333333E3BF0000000000000FB0107A41107004050150841D405064090741402480A0350
1001
ACAD
1000
AcDbSavedByObjectVersion
1070
     0
  0
ACAD_PROXY_OBJECT
  5
36
102
{ACAD_REACTORS
330
2A
102
}
330
2A
100
AcDbProxyObject
 90
      499
 91
      501
 93
      428
310
42109C9A59DA1D195B90C409028333333333333E3BF0000000000000FB010790141107004050150841D405064090741402480A029950
1001
ACAD
1000
AcDbSavedByObjectVersion
1070
     0
  0
ACAD_PROXY_OBJECT
  5
3A
102
{ACAD_REACTORS
330
2A
102
}
330
2A
100
AcDbProxyObject
 90
      499
 91
      501
 93
      452
310
42D0DBDB1BDC90DA185B99D95104090240C333333333333E3BF0000000000000FB0108901411070040501508421405064090741402480A0350
1001
ACAD
1000
AcDbSavedByObjectVersion
1070
     0
  0
ACAD_PROXY_OBJECT
  5
34
102
{ACAD_REACTORS
330
2A
102
}
330
2A
100
AcDbProxyObject
 90
      499
 91
      501
 93
      500
310
4290DBDB98D95C1D1D585B10940D028333333333333E3BF0000000000000FB0107902409070040501000000000000111010841D405064090740C02480A0340
1001
ACAD
1000
AcDbSavedByObjectVersion
1070
     0
  0
ACAD_PROXY_OBJECT
  5
35
102
{ACAD_REACTORS
330
2A
102
}
330
2A
100
AcDbProxyObject
 90
      499
 91
      501
 93
      412
310
40D11A5B50B409028333333333333E3BF0000000000000FB010790141107004050150841D405064090741402480A02677FFFFFD0
1001
ACAD
1000
AcDbSavedByObjectVersion
1070
     0
  0
ACAD_PROXY_OBJECT
  5
39
102
{ACAD_REACTORS
330
2A
102
}
330
2A
100
AcDbProxyObject
 90
      499
 91
      501
 93
      444
310
42D19858D95C185D1D195C9B90F409028333333333333E3BF0000000000000FB010790141107004050150841D405064090741402480A0350
1001
ACAD
1000
AcDbSavedByObjectVersion
1070
     0
  0
ACAD_PROXY_OBJECT
  5
2B
102
{ACAD_REACTORS
330
2A
102
}
330
2A
100
AcDbProxyObject
 90
      499
 91
      501
 93
      388
310
41119B185D240901404333333333333E3BF0000000000000F9010740A41107004050150841D405064090741402480A1B50
1001
ACAD
1000
AcDbSavedByObjectVersion
1070
     0
  0
ACAD_PROXY_OBJECT
  5
2C
102
{ACAD_REACTORS
330
2A
102
}
330
2A
100
AcDbProxyObject
 90
      499
 91
      501
 93
      476
310
43519B185D15DA5D1A115919D95CD0140901404333333333333E3BF0000000000000F9010740901411070040501600405405064090741402480A1B50
1001
ACAD
1000
AcDbSavedByObjectVersion
1070
     0
  0
ACAD_PROXY_OBJECT
  5
2D
102
{ACAD_REACTORS
330
2A
102
}
330
2A
100
AcDbProxyObject
 90
      499
 91
      501
 93
      412
310
41D1DBDD5C985D5910240902404333333333333E3BF0000000000000F9010740A411070040501641D405064090741402480A1B50
1001
ACAD
1000
AcDbSavedByObjectVersion
1070
     0
  0
ACAD_PROXY_OBJECT
  5
2E
102
{ACAD_REACTORS
330
2A
102
}
330
2A
100
AcDbProxyObject
 90
      499
 91
      501
 93
      500
310
4411DBDD5C985D5915DA5D1A115919D95CD0340902404333333333333E3BF0000000000000F9010740901411070040501600405405064090741402480A1B50
1001
ACAD
1000
AcDbSavedByObjectVersion
1070
     0
  0
ACAD_PROXY_OBJECT
  5
38
102
{ACAD_REACTORS
330
2A
102
}
330
2A
100
AcDbProxyObject
 90
      499
 91
      501
 93
      444
310
42D31A5B995C185D1D195C9B90E409028333333333333E3BF0000000000000FB010790141107004050750841D405064090741402483A0350
1001
ACAD
1000
AcDbSavedByObjectVersion
1070
     0
  0
ACAD_PROXY_OBJECT
  5
33
102
{ACAD_REACTORS
330
2A
102
}
330
2A
100
AcDbProxyObject
 90
      499
 91
      501
 93
      420
310
425499585B1A5CDD1A58D08409028333333333333E3BF0000000000000FB01079019070040501508421405064090741402480A1B40
1001
ACAD
1000
AcDbSavedByObjectVersion
1070
     0
  0
ACAD_PROXY_OBJECT
  5
37
102
{ACAD_REACTORS
330
2A
102
}
330
2A
100
AcDbProxyObject
 90
      499
 91
      501
 93
      412
310
41D51A1A58DAD95B90D409028333333333333E3BF0000000000000FB010790141107004050150C41D405064090741402480A0350
1001
ACAD
1000
AcDbSavedByObjectVersion
1070
     0
  0
ACAD_PROXY_OBJECT
  5
4D5
102
{ACAD_REACTORS
330
4CC
102
}
330
4CC
100
AcDbProxyObject
 90
      499
 91
      504
 93
       58
310
4196800000000000
  0
ACAD_PROXY_OBJECT
  5
4EB
102
{ACAD_REACTORS
330
4CC
102
}
330
4CC
100
AcDbProxyObject
 90
      499
 91
      504
 93
     1970
310
7D7A00C180099114D51653117A80C040099ECB812AC0118000800B8123C00A001999999999998E500B810480518000800B810A400A0002B5E8DC0F42B1CFCB8123400A0002B5E8DC0F42ADCFCB8103C0518001000B810AC00A0014AE07A17AD4760FCB81058051800B800B810B000A0002B5E8DC0F42B1CFCB810A800A0000
310
00000000002C0FCB8124C00A0002B5E8DC0F42ADCFCB811340118000000B810400518001000B811240118000400B812B00118000000B811280118000400B8106C0518000400B811500550044400000000000000B8123000A0002B5E8DC0F42B1CFCB810700518000000B811380118000003A80C040099F40
  0
ACAD_PROXY_OBJECT
  5
4D6
102
{ACAD_REACTORS
330
4CC
102
}
330
4CC
100
AcDbProxyObject
 90
      499
 91
      504
 93
      354
310
4AC0400980099ED04C8C918D8C4CD10B4C8E0CCC8B4D0C91114B5050CC910B510DCC908C4D0C0C5150D10D5F40
  0
ACAD_PROXY_OBJECT
  5
4CF
102
{ACAD_REACTORS
330
4CC
102
}
330
4CC
100
AcDbProxyObject
 90
      499
 91
      504
 93
       50
310
41404000000980
  0
ACAD_PROXY_OBJECT
  5
4D4
102
{ACAD_REACTORS
330
4CC
102
}
330
4CC
100
AcDbProxyObject
 90
      499
 91
      504
 93
       58
310
4196800040000000
  0
ACAD_PROXY_OBJECT
  5
4D1
102
{ACAD_REACTORS
330
4CC
102
}
330
4CC
100
AcDbProxyObject
 90
      499
 91
      504
 93
       90
310
429500468000000000000000
  0
ACAD_PROXY_OBJECT
  5
4D3
102
{ACAD_REACTORS
330
4CC
102
}
330
4CC
100
AcDbProxyObject
 90
      499
 91
      504
 93
       58
310
419680074A800000
  0
ACAD_PROXY_OBJECT
  5
4D2
102
{ACAD_REACTORS
330
4CC
102
}
330
4CC
100
AcDbProxyObject
 90
      499
 91
      504
 93
       90
310
429500464000000000000000
  0
ACAD_PROXY_OBJECT
  5
4D8
102
{ACAD_REACTORS
330
4CC
102
}
330
4CC
100
AcDbProxyObject
 90
      499
 91
      504
 93
       90
310
428A00000000000000000000
  0
ACAD_PROXY_OBJECT
  5
4DB
102
{ACAD_REACTORS
330
4CC
102
}
330
4CC
100
AcDbProxyObject
 90
      499
 91
      504
 93
       90
310
429500400000000000000000
  0
ACAD_PROXY_OBJECT
  5
4E1
102
{ACAD_REACTORS
330
4CC
102
}
330
4CC
100
AcDbProxyObject
 90
      499
 91
      504
 93
      218
310
46828000000000000000000000000000000000000000000000000000
  0
ACAD_PROXY_OBJECT
  5
4DD
102
{ACAD_REACTORS
330
4CC
102
}
330
4CC
100
AcDbProxyObject
 90
      499
 91
      504
 93
      218
310
46828000000000000000000000000000000000000000000000000000
  0
ACAD_PROXY_OBJECT
  5
4E0
102
{ACAD_REACTORS
330
4CC
102
}
330
4CC
100
AcDbProxyObject
 90
      499
 91
      504
 93
      218
310
46828000000000000000000000000000000000000000000000000000
  0
ACAD_PROXY_OBJECT
  5
4DE
102
{ACAD_REACTORS
330
4CC
102
}
330
4CC
100
AcDbProxyObject
 90
      499
 91
      504
 93
      218
310
46828000000000000000000000000000000000000000000000000000
  0
ACAD_PROXY_OBJECT
  5
4DF
102
{ACAD_REACTORS
330
4CC
102
}
330
4CC
100
AcDbProxyObject
 90
      499
 91
      504
 93
      218
310
46828000000000000000000000000000000000000000000000000000
  0
ACAD_PROXY_OBJECT
  5
4DC
102
{ACAD_REACTORS
330
4CC
102
}
330
4CC
100
AcDbProxyObject
 90
      499
 91
      504
 93
      218
310
46828000000000000000000000000000000000000000000000000000
  0
ACAD_PROXY_OBJECT
  5
4D9
102
{ACAD_REACTORS
330
4CC
102
}
330
4CC
100
AcDbProxyObject
 90
      499
 91
      504
 93
       90
310
429500400000000000000000
  0
ACAD_PROXY_OBJECT
  5
4DA
102
{ACAD_REACTORS
330
4CC
102
}
330
4CC
100
AcDbProxyObject
 90
      499
 91
      504
 93
       42
310
411180000000
  0
ACAD_PROXY_OBJECT
  5
4D0
102
{ACAD_REACTORS
330
4CC
102
}
330
4CC
100
AcDbProxyObject
 90
      499
 91
      504
 93
       50
310
41404000000980
  0
ACAD_PROXY_OBJECT
  5
4CD
102
{ACAD_REACTORS
330
4CC
102
}
330
4CC
100
AcDbProxyObject
 90
      499
 91
      504
 93
       58
310
4196800040000000
  0
ACAD_PROXY_OBJECT
  5
4CE
102
{ACAD_REACTORS
330
4CC
102
}
330
4CC
100
AcDbProxyObject
 90
      499
 91
      504
 93
       58
310
4196801180000000
  0
ACAD_PROXY_OBJECT
  5
4E4
102
{ACAD_REACTORS
330
4CC
102
}
330
4CC
100
AcDbProxyObject
 90
      499
 91
      504
 93
       90
310
429500400000000000000000
  0
ACAD_PROXY_OBJECT
  5
4EA
102
{ACAD_REACTORS
330
4CC
102
}
330
4CC
100
AcDbProxyObject
 90
      499
 91
      504
 93
      218
310
46828000000000000000000000000000000000000000000000000000
  0
ACAD_PROXY_OBJECT
  5
4E6
102
{ACAD_REACTORS
330
4CC
102
}
330
4CC
100
AcDbProxyObject
 90
      499
 91
      504
 93
      218
310
46828000000000000000000000000000000000000000000000000000
  0
ACAD_PROXY_OBJECT
  5
4E9
102
{ACAD_REACTORS
330
4CC
102
}
330
4CC
100
AcDbProxyObject
 90
      499
 91
      504
 93
      218
310
46828000000000000000000000000000000000000000000000000000
  0
ACAD_PROXY_OBJECT
  5
4E7
102
{ACAD_REACTORS
330
4CC
102
}
330
4CC
100
AcDbProxyObject
 90
      499
 91
      504
 93
      218
310
46828000000000000000000000000000000000000000000000000000
  0
ACAD_PROXY_OBJECT
  5
4E8
102
{ACAD_REACTORS
330
4CC
102
}
330
4CC
100
AcDbProxyObject
 90
      499
 91
      504
 93
      218
310
46828000000000000000000000000000000000000000000000000000
  0
ACAD_PROXY_OBJECT
  5
4E5
102
{ACAD_REACTORS
330
4CC
102
}
330
4CC
100
AcDbProxyObject
 90
      499
 91
      504
 93
      218
310
46828000000000000000000000000000000000000000000000000000
  0
ACAD_PROXY_OBJECT
  5
4E2
102
{ACAD_REACTORS
330
4CC
102
}
330
4CC
100
AcDbProxyObject
 90
      499
 91
      504
 93
       90
310
429500400000000000000000
  0
ACAD_PROXY_OBJECT
  5
4E3
102
{ACAD_REACTORS
330
4CC
102
}
330
4CC
100
AcDbProxyObject
 90
      499
 91
      504
 93
       42
310
411180000000
  0
ACAD_PROXY_OBJECT
  5
4D7
102
{ACAD_REACTORS
330
4CC
102
}
330
4CC
100
AcDbProxyObject
 90
      499
 91
      504
 93
      354
310
4AC0400980099ED19051508C50CCCC8B514C0C4E4B4C4C510D4B4E4C8E508B4C0C10CC11118C8D4D9150CD1F40
  0
ENDSEC
  0
EOF
