ISO-10303-21;
HEADER;
FILE_DESCRIPTION((''),'2;1');
FILE_NAME('ACC_000386','2014-09-15T',('lika51'),(''),
'PRO/ENGINEER BY PARAMETRIC TECHNOLOGY CORPORATION, 2010180',
'PRO/ENGINEER BY PARAMETRIC TECHNOLOGY CORPORATION, 2010180','');
FILE_SCHEMA(('CONFIG_CONTROL_DESIGN'));
ENDSEC;
DATA;
#1=CARTESIAN_POINT('',(0.E0,0.E0,0.E0));
#2=DIRECTION('',(0.E0,0.E0,1.E0));
#3=DIRECTION('',(1.E0,0.E0,0.E0));
#4=AXIS2_PLACEMENT_3D('',#1,#2,#3);
#6=CARTESIAN_POINT('',(0.E0,0.E0,0.E0));
#7=DIRECTION('',(0.E0,0.E0,1.E0));
#8=DIRECTION('',(-1.E0,0.E0,0.E0));
#9=AXIS2_PLACEMENT_3D('',#6,#7,#8);
#11=CARTESIAN_POINT('',(0.E0,-1.5E0,0.E0));
#12=DIRECTION('',(0.E0,0.E0,-1.E0));
#13=DIRECTION('',(-1.E0,0.E0,0.E0));
#14=AXIS2_PLACEMENT_3D('',#11,#12,#13);
#16=CARTESIAN_POINT('',(0.E0,-1.5E0,0.E0));
#17=DIRECTION('',(0.E0,0.E0,-1.E0));
#18=DIRECTION('',(1.E0,0.E0,0.E0));
#19=AXIS2_PLACEMENT_3D('',#16,#17,#18);
#21=DIRECTION('',(0.E0,0.E0,1.E0));
#22=VECTOR('',#21,2.7E0);
#23=CARTESIAN_POINT('',(6.E0,0.E0,0.E0));
#24=LINE('',#23,#22);
#25=DIRECTION('',(0.E0,0.E0,1.E0));
#26=VECTOR('',#25,2.7E0);
#27=CARTESIAN_POINT('',(-6.E0,0.E0,0.E0));
#28=LINE('',#27,#26);
#29=CARTESIAN_POINT('',(0.E0,-1.5E0,2.7E0));
#30=DIRECTION('',(0.E0,0.E0,1.E0));
#31=DIRECTION('',(1.E0,0.E0,0.E0));
#32=AXIS2_PLACEMENT_3D('',#29,#30,#31);
#34=CARTESIAN_POINT('',(0.E0,-1.5E0,2.7E0));
#35=DIRECTION('',(0.E0,0.E0,1.E0));
#36=DIRECTION('',(-1.E0,0.E0,0.E0));
#37=AXIS2_PLACEMENT_3D('',#34,#35,#36);
#39=CARTESIAN_POINT('',(0.E0,0.E0,2.7E0));
#40=DIRECTION('',(0.E0,0.E0,1.E0));
#41=DIRECTION('',(-1.E0,0.E0,0.E0));
#42=AXIS2_PLACEMENT_3D('',#39,#40,#41);
#44=CARTESIAN_POINT('',(0.E0,0.E0,2.7E0));
#45=DIRECTION('',(0.E0,0.E0,1.E0));
#46=DIRECTION('',(1.E0,0.E0,0.E0));
#47=AXIS2_PLACEMENT_3D('',#44,#45,#46);
#49=CARTESIAN_POINT('',(0.E0,0.E0,2.7E0));
#50=DIRECTION('',(0.E0,0.E0,1.E0));
#51=DIRECTION('',(0.E0,-1.E0,0.E0));
#52=AXIS2_PLACEMENT_3D('',#49,#50,#51);
#54=CARTESIAN_POINT('',(0.E0,-1.5E0,2.7E0));
#55=DIRECTION('',(0.E0,0.E0,1.E0));
#56=DIRECTION('',(0.E0,-1.E0,0.E0));
#57=AXIS2_PLACEMENT_3D('',#54,#55,#56);
#59=DIRECTION('',(0.E0,0.E0,1.E0));
#60=VECTOR('',#59,2.8E0);
#61=CARTESIAN_POINT('',(4.5E0,-1.5E0,2.7E0));
#62=LINE('',#61,#60);
#63=DIRECTION('',(0.E0,0.E0,1.E0));
#64=VECTOR('',#63,2.8E0);
#65=CARTESIAN_POINT('',(-4.5E0,-1.5E0,2.7E0));
#66=LINE('',#65,#64);
#67=CARTESIAN_POINT('',(0.E0,-1.5E0,5.5E0));
#68=DIRECTION('',(0.E0,0.E0,1.E0));
#69=DIRECTION('',(1.E0,0.E0,0.E0));
#70=AXIS2_PLACEMENT_3D('',#67,#68,#69);
#72=CARTESIAN_POINT('',(0.E0,-1.5E0,5.5E0));
#73=DIRECTION('',(0.E0,0.E0,1.E0));
#74=DIRECTION('',(-1.E0,0.E0,0.E0));
#75=AXIS2_PLACEMENT_3D('',#72,#73,#74);
#77=CARTESIAN_POINT('',(0.E0,-1.5E0,5.5E0));
#78=DIRECTION('',(0.E0,0.E0,-1.E0));
#79=DIRECTION('',(-1.E0,0.E0,0.E0));
#80=AXIS2_PLACEMENT_3D('',#77,#78,#79);
#82=CARTESIAN_POINT('',(0.E0,-1.5E0,5.5E0));
#83=DIRECTION('',(0.E0,0.E0,-1.E0));
#84=DIRECTION('',(1.E0,0.E0,0.E0));
#85=AXIS2_PLACEMENT_3D('',#82,#83,#84);
#87=DIRECTION('',(0.E0,0.E0,-1.E0));
#88=VECTOR('',#87,5.5E0);
#89=CARTESIAN_POINT('',(-2.1E0,-1.5E0,5.5E0));
#90=LINE('',#89,#88);
#91=DIRECTION('',(0.E0,0.E0,-1.E0));
#92=VECTOR('',#91,5.5E0);
#93=CARTESIAN_POINT('',(2.1E0,-1.5E0,5.5E0));
#94=LINE('',#93,#92);
#95=CARTESIAN_POINT('',(6.E0,0.E0,0.E0));
#96=CARTESIAN_POINT('',(-6.E0,0.E0,0.E0));
#97=VERTEX_POINT('',#95);
#98=VERTEX_POINT('',#96);
#99=CARTESIAN_POINT('',(6.E0,0.E0,2.7E0));
#100=CARTESIAN_POINT('',(-6.E0,0.E0,2.7E0));
#101=VERTEX_POINT('',#99);
#102=VERTEX_POINT('',#100);
#103=CARTESIAN_POINT('',(4.5E0,-1.5E0,5.5E0));
#104=CARTESIAN_POINT('',(-4.5E0,-1.5E0,5.5E0));
#105=VERTEX_POINT('',#103);
#106=VERTEX_POINT('',#104);
#107=CARTESIAN_POINT('',(4.5E0,-1.5E0,2.7E0));
#108=CARTESIAN_POINT('',(-4.5E0,-1.5E0,2.7E0));
#109=VERTEX_POINT('',#107);
#110=VERTEX_POINT('',#108);
#111=CARTESIAN_POINT('',(0.E0,-6.E0,2.7E0));
#112=VERTEX_POINT('',#111);
#113=CARTESIAN_POINT('',(-2.1E0,-1.5E0,0.E0));
#114=CARTESIAN_POINT('',(2.1E0,-1.5E0,0.E0));
#115=VERTEX_POINT('',#113);
#116=VERTEX_POINT('',#114);
#117=CARTESIAN_POINT('',(-2.1E0,-1.5E0,5.5E0));
#118=CARTESIAN_POINT('',(2.1E0,-1.5E0,5.5E0));
#119=VERTEX_POINT('',#117);
#120=VERTEX_POINT('',#118);
#121=CARTESIAN_POINT('',(0.E0,0.E0,0.E0));
#122=DIRECTION('',(0.E0,0.E0,1.E0));
#123=DIRECTION('',(1.E0,0.E0,0.E0));
#124=AXIS2_PLACEMENT_3D('',#121,#122,#123);
#125=PLANE('',#124);
#127=ORIENTED_EDGE('',*,*,#126,.T.);
#129=ORIENTED_EDGE('',*,*,#128,.T.);
#130=EDGE_LOOP('',(#127,#129));
#131=FACE_OUTER_BOUND('',#130,.F.);
#133=ORIENTED_EDGE('',*,*,#132,.T.);
#135=ORIENTED_EDGE('',*,*,#134,.T.);
#136=EDGE_LOOP('',(#133,#135));
#137=FACE_BOUND('',#136,.F.);
#139=CARTESIAN_POINT('',(0.E0,0.E0,0.E0));
#140=DIRECTION('',(0.E0,0.E0,1.E0));
#141=DIRECTION('',(1.E0,0.E0,0.E0));
#142=AXIS2_PLACEMENT_3D('',#139,#140,#141);
#143=CYLINDRICAL_SURFACE('',#142,6.E0);
#144=ORIENTED_EDGE('',*,*,#126,.F.);
#146=ORIENTED_EDGE('',*,*,#145,.T.);
#148=ORIENTED_EDGE('',*,*,#147,.T.);
#150=ORIENTED_EDGE('',*,*,#149,.F.);
#151=EDGE_LOOP('',(#144,#146,#148,#150));
#152=FACE_OUTER_BOUND('',#151,.F.);
#154=CARTESIAN_POINT('',(0.E0,0.E0,0.E0));
#155=DIRECTION('',(0.E0,0.E0,1.E0));
#156=DIRECTION('',(1.E0,0.E0,0.E0));
#157=AXIS2_PLACEMENT_3D('',#154,#155,#156);
#158=CYLINDRICAL_SURFACE('',#157,6.E0);
#160=ORIENTED_EDGE('',*,*,#159,.T.);
#162=ORIENTED_EDGE('',*,*,#161,.T.);
#163=ORIENTED_EDGE('',*,*,#145,.F.);
#164=ORIENTED_EDGE('',*,*,#128,.F.);
#165=ORIENTED_EDGE('',*,*,#149,.T.);
#166=EDGE_LOOP('',(#160,#162,#163,#164,#165));
#167=FACE_OUTER_BOUND('',#166,.F.);
#169=CARTESIAN_POINT('',(0.E0,0.E0,2.7E0));
#170=DIRECTION('',(0.E0,0.E0,1.E0));
#171=DIRECTION('',(1.E0,0.E0,0.E0));
#172=AXIS2_PLACEMENT_3D('',#169,#170,#171);
#173=PLANE('',#172);
#175=ORIENTED_EDGE('',*,*,#174,.T.);
#177=ORIENTED_EDGE('',*,*,#176,.T.);
#178=ORIENTED_EDGE('',*,*,#159,.F.);
#179=ORIENTED_EDGE('',*,*,#147,.F.);
#180=ORIENTED_EDGE('',*,*,#161,.F.);
#182=ORIENTED_EDGE('',*,*,#181,.T.);
#183=EDGE_LOOP('',(#175,#177,#178,#179,#180,#182));
#184=FACE_OUTER_BOUND('',#183,.F.);
#186=CARTESIAN_POINT('',(0.E0,-1.5E0,2.7E0));
#187=DIRECTION('',(0.E0,0.E0,1.E0));
#188=DIRECTION('',(1.E0,0.E0,0.E0));
#189=AXIS2_PLACEMENT_3D('',#186,#187,#188);
#190=CYLINDRICAL_SURFACE('',#189,4.5E0);
#191=ORIENTED_EDGE('',*,*,#174,.F.);
#193=ORIENTED_EDGE('',*,*,#192,.T.);
#195=ORIENTED_EDGE('',*,*,#194,.T.);
#197=ORIENTED_EDGE('',*,*,#196,.F.);
#198=EDGE_LOOP('',(#191,#193,#195,#197));
#199=FACE_OUTER_BOUND('',#198,.F.);
#201=CARTESIAN_POINT('',(0.E0,-1.5E0,2.7E0));
#202=DIRECTION('',(0.E0,0.E0,1.E0));
#203=DIRECTION('',(1.E0,0.E0,0.E0));
#204=AXIS2_PLACEMENT_3D('',#201,#202,#203);
#205=CYLINDRICAL_SURFACE('',#204,4.5E0);
#206=ORIENTED_EDGE('',*,*,#176,.F.);
#207=ORIENTED_EDGE('',*,*,#196,.T.);
#209=ORIENTED_EDGE('',*,*,#208,.T.);
#210=ORIENTED_EDGE('',*,*,#192,.F.);
#211=ORIENTED_EDGE('',*,*,#181,.F.);
#212=EDGE_LOOP('',(#206,#207,#209,#210,#211));
#213=FACE_OUTER_BOUND('',#212,.F.);
#215=CARTESIAN_POINT('',(0.E0,0.E0,5.5E0));
#216=DIRECTION('',(0.E0,0.E0,1.E0));
#217=DIRECTION('',(1.E0,0.E0,0.E0));
#218=AXIS2_PLACEMENT_3D('',#215,#216,#217);
#219=PLANE('',#218);
#220=ORIENTED_EDGE('',*,*,#194,.F.);
#221=ORIENTED_EDGE('',*,*,#208,.F.);
#222=EDGE_LOOP('',(#220,#221));
#223=FACE_OUTER_BOUND('',#222,.F.);
#225=ORIENTED_EDGE('',*,*,#224,.F.);
#227=ORIENTED_EDGE('',*,*,#226,.F.);
#228=EDGE_LOOP('',(#225,#227));
#229=FACE_BOUND('',#228,.F.);
#231=CARTESIAN_POINT('',(0.E0,-1.5E0,5.5E0));
#232=DIRECTION('',(0.E0,0.E0,-1.E0));
#233=DIRECTION('',(-1.E0,0.E0,0.E0));
#234=AXIS2_PLACEMENT_3D('',#231,#232,#233);
#235=CYLINDRICAL_SURFACE('',#234,2.1E0);
#236=ORIENTED_EDGE('',*,*,#132,.F.);
#238=ORIENTED_EDGE('',*,*,#237,.F.);
#239=ORIENTED_EDGE('',*,*,#224,.T.);
#241=ORIENTED_EDGE('',*,*,#240,.T.);
#242=EDGE_LOOP('',(#236,#238,#239,#241));
#243=FACE_OUTER_BOUND('',#242,.F.);
#245=CARTESIAN_POINT('',(0.E0,-1.5E0,5.5E0));
#246=DIRECTION('',(0.E0,0.E0,-1.E0));
#247=DIRECTION('',(-1.E0,0.E0,0.E0));
#248=AXIS2_PLACEMENT_3D('',#245,#246,#247);
#249=CYLINDRICAL_SURFACE('',#248,2.1E0);
#250=ORIENTED_EDGE('',*,*,#134,.F.);
#251=ORIENTED_EDGE('',*,*,#240,.F.);
#252=ORIENTED_EDGE('',*,*,#226,.T.);
#253=ORIENTED_EDGE('',*,*,#237,.T.);
#254=EDGE_LOOP('',(#250,#251,#252,#253));
#255=FACE_OUTER_BOUND('',#254,.F.);
#257=CLOSED_SHELL('',(#138,#153,#168,#185,#200,#214,#230,#244,#256));
#258=MANIFOLD_SOLID_BREP('',#257);
#260=DIMENSIONAL_EXPONENTS(0.E0,0.E0,0.E0,0.E0,0.E0,0.E0,0.E0);
#262=PLANE_ANGLE_MEASURE_WITH_UNIT(PLANE_ANGLE_MEASURE(1.745329251994E-2),#261);
#263=(CONVERSION_BASED_UNIT('DEGREE',#262)NAMED_UNIT(*)PLANE_ANGLE_UNIT());
#265=UNCERTAINTY_MEASURE_WITH_UNIT(LENGTH_MEASURE(1.784549871020E-3),#259,
'closure',
'Maximum model space distance between geometric entities at asserted connectivities');
#268=APPLICATION_CONTEXT(
'CONFIGURATION CONTROLLED 3D DESIGNS OF MECHANICAL PARTS AND ASSEMBLIES');
#269=APPLICATION_PROTOCOL_DEFINITION('international standard',
'config_control_design',1994,#268);
#270=DESIGN_CONTEXT('',#268,'design');
#271=MECHANICAL_CONTEXT('',#268,'mechanical');
#272=PRODUCT('ACC_000386','ACC_000386','NOT SPECIFIED',(#271));
#273=PRODUCT_DEFINITION_FORMATION_WITH_SPECIFIED_SOURCE('1','LAST_VERSION',#272,
.MADE.);
#277=PRODUCT_CATEGORY('part','');
#278=PRODUCT_RELATED_PRODUCT_CATEGORY('detail','',(#272));
#279=PRODUCT_CATEGORY_RELATIONSHIP('','',#277,#278);
#280=SECURITY_CLASSIFICATION_LEVEL('unclassified');
#281=SECURITY_CLASSIFICATION('','',#280);
#282=CC_DESIGN_SECURITY_CLASSIFICATION(#281,(#273));
#283=APPROVAL_STATUS('approved');
#284=APPROVAL(#283,'');
#285=CC_DESIGN_APPROVAL(#284,(#281,#273,#274));
#286=CALENDAR_DATE(114,15,9);
#287=COORDINATED_UNIVERSAL_TIME_OFFSET(2,0,.AHEAD.);
#288=LOCAL_TIME(16,54,5.5E1,#287);
#289=DATE_AND_TIME(#286,#288);
#290=APPROVAL_DATE_TIME(#289,#284);
#291=DATE_TIME_ROLE('creation_date');
#292=CC_DESIGN_DATE_AND_TIME_ASSIGNMENT(#289,#291,(#274));
#293=DATE_TIME_ROLE('classification_date');
#294=CC_DESIGN_DATE_AND_TIME_ASSIGNMENT(#289,#293,(#281));
#295=PERSON('UNSPECIFIED','UNSPECIFIED',$,$,$,$);
#296=ORGANIZATION('UNSPECIFIED','UNSPECIFIED','UNSPECIFIED');
#297=PERSON_AND_ORGANIZATION(#295,#296);
#298=APPROVAL_ROLE('approver');
#299=APPROVAL_PERSON_ORGANIZATION(#297,#284,#298);
#300=PERSON_AND_ORGANIZATION_ROLE('creator');
#301=CC_DESIGN_PERSON_AND_ORGANIZATION_ASSIGNMENT(#297,#300,(#273,#274));
#302=PERSON_AND_ORGANIZATION_ROLE('design_supplier');
#303=CC_DESIGN_PERSON_AND_ORGANIZATION_ASSIGNMENT(#297,#302,(#273));
#304=PERSON_AND_ORGANIZATION_ROLE('classification_officer');
#305=CC_DESIGN_PERSON_AND_ORGANIZATION_ASSIGNMENT(#297,#304,(#281));
#306=PERSON_AND_ORGANIZATION_ROLE('design_owner');
#307=CC_DESIGN_PERSON_AND_ORGANIZATION_ASSIGNMENT(#297,#306,(#272));
#5=CIRCLE('',#4,6.E0);
#10=CIRCLE('',#9,6.E0);
#15=CIRCLE('',#14,2.1E0);
#20=CIRCLE('',#19,2.1E0);
#33=CIRCLE('',#32,4.5E0);
#38=CIRCLE('',#37,4.5E0);
#43=CIRCLE('',#42,6.E0);
#48=CIRCLE('',#47,6.E0);
#53=CIRCLE('',#52,6.E0);
#58=CIRCLE('',#57,4.5E0);
#71=CIRCLE('',#70,4.5E0);
#76=CIRCLE('',#75,4.5E0);
#81=CIRCLE('',#80,2.1E0);
#86=CIRCLE('',#85,2.1E0);
#126=EDGE_CURVE('',#97,#98,#5,.T.);
#128=EDGE_CURVE('',#98,#97,#10,.T.);
#132=EDGE_CURVE('',#115,#116,#15,.T.);
#134=EDGE_CURVE('',#116,#115,#20,.T.);
#138=ADVANCED_FACE('',(#131,#137),#125,.F.);
#145=EDGE_CURVE('',#97,#101,#24,.T.);
#147=EDGE_CURVE('',#101,#102,#48,.T.);
#149=EDGE_CURVE('',#98,#102,#28,.T.);
#153=ADVANCED_FACE('',(#152),#143,.T.);
#159=EDGE_CURVE('',#102,#112,#43,.T.);
#161=EDGE_CURVE('',#112,#101,#53,.T.);
#168=ADVANCED_FACE('',(#167),#158,.T.);
#174=EDGE_CURVE('',#109,#110,#33,.T.);
#176=EDGE_CURVE('',#110,#112,#38,.T.);
#181=EDGE_CURVE('',#112,#109,#58,.T.);
#185=ADVANCED_FACE('',(#184),#173,.T.);
#192=EDGE_CURVE('',#109,#105,#62,.T.);
#194=EDGE_CURVE('',#105,#106,#71,.T.);
#196=EDGE_CURVE('',#110,#106,#66,.T.);
#200=ADVANCED_FACE('',(#199),#190,.T.);
#208=EDGE_CURVE('',#106,#105,#76,.T.);
#214=ADVANCED_FACE('',(#213),#205,.T.);
#224=EDGE_CURVE('',#119,#120,#81,.T.);
#226=EDGE_CURVE('',#120,#119,#86,.T.);
#230=ADVANCED_FACE('',(#223,#229),#219,.T.);
#237=EDGE_CURVE('',#119,#115,#90,.T.);
#240=EDGE_CURVE('',#120,#116,#94,.T.);
#244=ADVANCED_FACE('',(#243),#235,.F.);
#256=ADVANCED_FACE('',(#255),#249,.F.);
#259=(LENGTH_UNIT()NAMED_UNIT(*)SI_UNIT(.MILLI.,.METRE.));
#261=(NAMED_UNIT(*)PLANE_ANGLE_UNIT()SI_UNIT($,.RADIAN.));
#264=(NAMED_UNIT(*)SI_UNIT($,.STERADIAN.)SOLID_ANGLE_UNIT());
#266=(GEOMETRIC_REPRESENTATION_CONTEXT(3)GLOBAL_UNCERTAINTY_ASSIGNED_CONTEXT((
#265))GLOBAL_UNIT_ASSIGNED_CONTEXT((#259,#263,#264))REPRESENTATION_CONTEXT
('ID1','3'));
#267=ADVANCED_BREP_SHAPE_REPRESENTATION('',(#258),#266);
#274=PRODUCT_DEFINITION('design','',#273,#270);
#275=PRODUCT_DEFINITION_SHAPE('','SHAPE FOR ACC_000386.',#274);
#276=SHAPE_DEFINITION_REPRESENTATION(#275,#267);
ENDSEC;
END-ISO-10303-21;
